Oops, an error
Loading. Please wait.

Can I Sit Next To You Girl bass

version 2
version 2

Whole song

  • More complete than other version, different notes,... Show more

Interactive

by AC/DC
76 views 1 this week
no commentswrite comment
1 2 3 4 5
3 more votes to show rating
add to favorites
×
Save as Personal and add changes to this tab that will be seen only by you. Learn more ›
×
You can save this tab as Personal to edit and correct it or add notes. All changes will be seen only by you. Learn more »
launch autoscroll
font size
0
reset
guitar tuner
edit
Autoscroll
slow
fast
+/-
esc
set tempo
stop
About this tab version
More complete than other version, different notes, fully written out, no repeated lines, easy to follow. Was this info helpful? Yes No
[Intro]

G|-----------------|-----------------|-----------------|-----------------|
D|-----------------|-----------------|-----------------|-----------------|
A|-----------------|-----------------|-----------------|-----------------|
E|-3---------------|-(3)-------------|-(3)-------------|-(3)-------------|

G|-----------------|-----------------|-----------------|-----------------|
D|-----------------|-----------------|-----------------|-----------------|
A|-1---------------|-(1)-------------|-(1)-------------|-(1)-------------|
E|-----------------|-----------------|-----------------|-----------------|

G|-----------------|-----------------|-----------------|-----------------|
D|-----------------|-----------------|-----------------|-----------------|
A|-2---2---2---2---|-2---2---2---2---|-2---2---2---2---|-2---2---2---2---|
E|-----------------|-----------------|-----------------|-----------------|

G|-----------------|-----------------|-----------------|-----------------|
D|-----------------|-----------------|-----------------|-----------------|
A|-4---4---4---4---|-4---4---4---4---|-6---6---6---6---|-6---6---6---6---|
E|-----------------|-----------------|-----------------|-----------------|

G|-----------------|-----------------|-----------------|-----------------|
D|-----------------|-----------------|-----------------|-----------------|
A|-6---6---6---6---|-6--6--------2---|-4---4---4---4---|-4---4---4---4---|
E|-----------------|-----2---4-------|-----------------|-----------------|

G|-----------------|-----------------|-----------------|-----------------|
D|-----------------|-----------------|-----------------|-----------------|
A|-4---4---4---4---|-4---4---4---4---|-----------------|-----------------|
E|-----------------|-----------------|-2---2---2---2---|-2---2---2---2---|

G|-----------------|-----------------|-----------------|-----------------|
D|-----------------|-----------------|-----------------|-----------------|
A|-4---4---4---4---|-4---4---4---4---|-----------------|-----------------|
E|-----------------|-----------------|-4---4---4---4---|-4---4---4---4---|

G|-----------------|-----------------|
D|-----------------|-----------------|
A|-4---4---4---4---|-4-----------2---|
E|-----------------|-----2---4-------|


[Verse]

G|-----------------|-----------------|-----------------|-----------------|
D|-----------------|-----------------|-----------------|-----------------|
A|-4---4---4---4---|-4---4---4---4---|---------2---2---|---------2---2---|
E|-----------------|-----------------|-2---2-----------|-2---2-----------|

G|-----------------|-----------------|-----------------|-----------------|
D|-----------------|-----------------|-----------------|-2---2-----------|
A|-4---4---4---4---|-4---4---4---4---|---------2---2---|-----------------|
E|-----------------|-----------------|-2---2-----------|---------4---4---|

G|-----------------|-----------------|-----------------|-----------------|
D|-----------------|-----------------|-----------------|-----------------|
A|-4---4---4---4---|-4---4---4---5---|-6---6---6---6---|-6---6---6---5---|
E|-----------------|-----------------|-----------------|-----------------|

G|-----------------|-----------------|-----------------|-----------------|
D|-----------------|-----------------|-----------------|-4---2-----------|
A|-4---4---4---4---|-4---4---4---4---|-4---4---4---4---|---------4---2---|
E|-----------------|-----------------|-----------------|-----------------|

G|-----------------|
D|-----------------|
A|-----------------|
E|-4---2---0---1---|


[Chorus]

G|-----------------|-----------------|-----------------|-----------------|
D|-----------------|-----------------|-----------------|-----------------|
A|-----------------|-----------------|-----------------|-----------------|
E|-3--33--33--33---|33--33--33--33---|33--33--33--33---|33--33--33--33---|

G|-----------------|-----------------|-----------------|-----------------|
D|-----------------|-----------------|-----------------|-----------------|
A|-----------------|-----------------|55--55--55--55---|55--55--55--55---|
E|55--55--55--55---|55--55--55--55---|-----------------|-----------------|

G|-----------------|-----------------|
D|-----------------|-----------------|
A|55--55--55--55---|55--5--------2---|
E|-----------------|-----2---4-------|


[Verse]

G|-----------------|-----------------|-----------------|-----------------|
D|-----------------|-----------------|-----------------|-----------------|
A|-4---4---4---4---|-4---4---4---4---|---------2---2---|---------2---2---|
E|-----------------|-----------------|-2---2-----------|-2---2-----------|

G|-----------------|-----------------|-----------------|-----------------|
D|-----------------|-----------------|-----------------|-2---2-----------|
A|-4---4---4---4---|-4---4---4---4---|---------2---2---|-----------------|
E|-----------------|-----------------|-2---2-----------|---------4---4---|

G|-----------------|-----------------|-----------------|-----------------|
D|-----------------|-----------------|-----------------|-----------------|
A|-4---4---4---4---|-4---4---4---5---|-6---6---6---6---|-6---6---6---5---|
E|-----------------|-----------------|-----------------|-----------------|

G|-----------------|-----------------|-----------------|-----------------|
D|-----------------|-----------------|-----------------|-4---2-----------|
A|-4---4---4---4---|-4---4---4---4---|-4---4---4---4---|---------4---2---|
E|-----------------|-----------------|-----------------|-----------------|

G|-----------------|
D|-----------------|
A|-----------------|
E|-4---2---0---1---|


[Chorus]

G|-----------------|-----------------|-----------------|-----------------|
D|-----------------|-----------------|-----------------|-----------------|
A|-----------------|-----------------|-----------------|-----------------|
E|-3--33--33--33---|33--33--33--33---|33--33--33--33---|33--33--33--33---|

G|-----------------|-----------------|-----------------|-----------------|
D|-----------------|-----------------|-----------------|-----------------|
A|-----------------|-----------------|55--55--55--55---|55--55--55--55---|
E|55--55--55--55---|55--55--55--55---|-----------------|-----------------|

G|-----------------|-----------------|
D|-----------------|-----------------|
A|55--55--55--55---|55--5--------2---|
E|-----------------|-----2---4-------|


[Solo]

G|-----------------|-----------------|-----------------|-----------------|
D|-----------------|-----------------|-----------------|-----------------|
A|-4---4---4---4---|-4---4---4---4---|---------2---2---|---------2---2---|
E|-----------------|-----------------|-2---2-----------|-2---2-----------|

G|-----------------|-----------------|-----------------|-----------------|
D|-----------------|-----------------|-----------------|-2---2-----------|
A|-4---4---4---4---|-4---4---4---4---|---------2---2---|---------2---2---|
E|-----------------|-----------------|-2---2-----------|-----------------|

G|-----------------|-----------------|-----------------|-----------------|
D|-----------------|-----------------|-----------------|-----------------|
A|-4---4-----------|-----------------|-----------------|-----------------|
E|---------2---2---|-4---4---0---0---|-2---2---2---2---|-2---2---2---2---|


[Chorus/Outro]

G|-----------------|-----------------|-----------------|-----------------|
D|-----------------|-----------------|-----------------|-----------------|
A|-----------------|-----------------|-----------------|-----------------|
E|-----------------|-----------------|-----------------|-----------------|

G|-----------------|-----------------|-----------------|-----------------|
D|-----------------|-----------------|-----------------|-----------------|
A|-----------------|-----------------|-----------------|-----------------|
E|-----------------|-----------------|-----------------|-----------------|

G|-----------------|-----------------|-----------------|-----------------|
D|-----------------|-----------------|-----------------|-----------------|
A|-0---------------|-(0)-------------|-(0)-------------|-(0)-------------|
E|-----------------|-----------------|-----------------|-----------------|

G|-----------------|-----------------|-----------------|-----------------|
D|-----------------|-----------------|-----------------|-----------------|
A|-----------------|-----------------|-----------------|-----------------|
E|-----------------|-----------------|-----------------|-----------------|

G|-----------------|-----------------|-----------------|-----------------|
D|-----------------|-----------------|-----------------|-----------------|
A|-2---2---2---2---|-2---2---2---2---|-2---2---2---2---|-2---2---2---2---|
E|-----------------|-----------------|-----------------|-----------------|

G|-----------------|-----------------|-----------------|-----------------|
D|-----------------|-----------------|-----------------|-----------------|
A|-3---3---3---3---|-3---3---3---3---|-5---5---5---5---|-5---5---3---2---|
E|-----------------|-----------------|-----------------|-----------------|

G|-----------------|-----------------|-----------------|-----------------|
D|-----------------|-----------------|-----------------|-----------------|
A|-5---5---5---5---|-5---5---3---2---|-5---5---5---5---|-5---5---3---2---|
E|-----------------|-----------------|-----------------|-----------------|

G|-----------------|-----------------|-----------------|-----------------|
D|-----------------|-----------------|-----------------|-----------------|
A|-5---5---5---5---|-5---5---3---2---|-5---5---5---5---|-5---5---3---2---|
E|-----------------|-----------------|-----------------|-----------------|

G|-----------------|-----------------|-----------------|-----------------|
D|-----------------|-----------------|-----------------|-----------------|
A|-5---5---5---5---|-5---5---3---2---|-5---5---5---5---|-5---5---3---2---|
E|-----------------|-----------------|-----------------|-----------------|

Slow tempo                             Hold through ending lick
G|-----------------|-----------------|-----------------|-----------------|
D|-----------------|-----------------|-----------------|-----------------|
A|-5---5---5---5---|-5---5---3---2---|-5---------------|-(5)-------------|
E|-----------------|-----------------|-----------------|-----------------|

G|-----------------|
D|-----------------|
A|-5\--------------|
E|-----------------|



Well, I hope you enjoy it. Not 100% sure on the tuning of the song, but sounds decent.
Let me know if you have corrections. 

************************************

| (n) Ghost note
| \   Slide down

************************************

            
            
Suggest correction
Creating personal tab
Creating personal tab
You can edit any tab online and save it as your Personal.

You can edit, replace or remove any tab part or add personal notes – all changes will be seen only by you.

Personal tabs can be accessed anytime from any device, even offline.
Learn more »
Give kudos to tab author, rate the tab!
1 2 3 4 5
comments
print report bad tab
guest
You may want to rate the tab now too:
select rating
Wanna post a correction for this tab? Suggest correction