Oops, an error
Loading. Please wait.

Cant Stop Rock N Roll bass

version 1
version 1

Whole song

Interactive

by AC/DC
1,950 views 1 this week
1 commentread comment
1 2 3 4 5
x 3
add to favorites
×
Save as Personal and add changes to this tab that will be seen only by you. Learn more ›
×
You can save this tab as Personal to edit and correct it or add notes. All changes will be seen only by you. Learn more »
launch autoscroll
font size
0
reset
guitar tuner
edit
Autoscroll
slow
fast
+/-
esc
set tempo
stop
Author
AC/DC-Can't Stop Rock N Roll 
Stiff Upper Lip (2000) 
Transcribed by: playinbass1432
Email: playinbass1432@hotmail.com 

Standard Tuning 

Intro: 

   A   G   D   C     A C               A 
G|-----------------|-----------------|-----------------|-----------------|
D|-----------------|-----------------|-----------------|-----------------|
A|---------5---3---|---3-------------|-----------------|-----------------|
E|-5---3-----------|-5---------------|-5---------------|-----------------|

Pre Verse 1: 

   A         G       D                 A         G       D
G|-----------------|-----------------|-----------------|-----------------|
D|-----------------|-----------------|-----------------|-----------------|
A|-----------------|-5-5-5-5-5-5-5-5-|-----------------|-5-5-5-5-5-5-5-5-|
E|-5-5-5-5-5\3-3-3-|-----------------|-5-5-5-5-5\3-3-3-|-----------------|

   A         G       D                 A         G       D
G|-----------------|-----------------|-----------------|-----------------|
D|-----------------|-----------------|-----------------|-----------------|
A|-----------------|-5-5-5-5-5-5-5-5-|-----------------|-5-5-5-5-5-5-5-5-|
E|-5-5-5-5-5\3-3-3-|-----------------|-5-5-5-5-5\3-3-3-|-----------------|

Verse 1: 

     A G   D C       A C                 A G   D C       A C 
G|-----------------|-----------------|-----------------|-----------------|
D|-----------------|-----------------|-----------------|-----------------|
A|---------5-3-----|---3-------------|---------5-3-----|---3-------------|
E|---5-3--3--------|-5---------------|---5-3--3--------|-5---------------|

     A G   D C       A C                 A G   D C       A C   
G|-----------------|-----------------|-----------------|-----------------|
D|-----------------|-----------------|-----------------|-----------------|
A|---------5-3-----|---3-------------|---------5-3-----|---3-------------|
E|---5-3--3--------|-5---------------|---5-3--3--------|-5---------------|

Pre Chorus 1: 

   F                 A                 F       A         D
G|-----------------|-----------------|-----------------|-----------------|
D|-----------------|-----------------|-----------------|-----------------|
A|-----------------|-----------------|-----------------|-5-5-5-5-5-5-5-5-|
E|-1-1-------------|-5-5-------------|-1-1-1-1-5-5-5-5-|-----------------|

Chorus 1:

   A         G       D                 A         G       D
G|-----------------|-----------------|-----------------|-----------------|
D|-----------------|-----------------|-----------------|-----------------|
A|-----------------|-5-5-5-5-5-5-5-5-|-----------------|-5-5-5-5-5-5-5-5-|
E|-5-5-5-5-5\3-3-3-|-----------------|-5-5-5-5-5\3-3-3-|-----------------|

Verse 2: 

     A G   D C       A C                 A G   D C       A C 
G|-----------------|-----------------|-----------------|-----------------|
D|-----------------|-----------------|-----------------|-----------------|
A|---------5-3-----|---3-------------|---------5-3-----|---3-------------|
E|---5-3--3--------|-5---------------|---5-3--3--------|-5---------------|

     A G   D C       A C                 A G   D C       A C   
G|-----------------|-----------------|-----------------|-----------------|
D|-----------------|-----------------|-----------------|-----------------|
A|---------5-3-----|---3-------------|---------5-3-----|---3-------------|
E|---5-3--3--------|-5---------------|---5-3--3--------|-5---------------|

Pre Chorus 2: 

   F                 A                 F       A         D
G|-----------------|-----------------|-----------------|-----------------|
D|-----------------|-----------------|-----------------|-----------------|
A|-----------------|-----------------|-----------------|-5-5-5-5-5-5-5-5-|
E|-1-1-------------|-5-5-------------|-1-1-1-1-5-5-5-5-|-----------------|

Chorus 2:

   A         G       D                 A         G       D
G|-----------------|-----------------|-----------------|-----------------|
D|-----------------|-----------------|-----------------|-----------------|
A|-----------------|-5-5-5-5-5-5-5-5-|-----------------|-5-5-5-5-5-5-5-5-|
E|-5-5-5-5-5\3-3-3-|-----------------|-5-5-5-5-5\3-3-3-|-----------------|

   A         G       D                 A         G       D
G|-----------------|-----------------|-----------------|-----------------|
D|-----------------|-----------------|-----------------|-----------------|
A|-----------------|-5-5-5-5-5-5-5-5-|-----------------|-5-5-5-5-5-5-5-5-|
E|-5-5-5-5-5\3-3-3-|-----------------|-5-5-5-5-5\3-3-3-|-----------------|

Bridge: 

   A       G         F#                A       G         F#
G|-----------------|-----------------|-----------------|-----------------|
D|-----------------|-----------------|-----------------|-----------------|
A|-----------------|-----------------|-----------------|-----------------|
E|-5-5-5-5-3-3-3-3-|-2-2-2-2-2-2-2-2-|-5-5-5-5-3-3-3-3-|-2-2-2-2-2-2-2-2-|

   A       G         F#                  A G   D C       A C         
G|-----------------|-----------------|-----------------|-----------------|
D|-----------------|-----------------|-----------------|-----------------|
A|-----------------|-----------------|---------5-3-----|---3-------------|
E|-5-5-5-5-3-3-3-3-|-2-2-2-2-2-2-2-2-|---5-3--3--------|-5---------------|

Guitar Solo: 

   D F     F G       A C               D F     F G       A C 
G|-----------------|-----------------|-----------------|-----------------|
D|---3-------------|-----------------|---3-------------|-----------------|
A|-5---------------|---3-------------|-5---------------|---3-------------|
E|---------1-3-----|-5---------------|---------1-3-----|-5---------------|

   D F     F G       A C     A C       D F     F G       D         
G|-----------------|-----------------|-----------------|-----------------|
D|---3-------------|-----------------|---3-------------|-----------------|
A|-5---------------|---3-------3-----|-5---------------|-5-5-5-5-5-5-5-5-|
E|---------1-3-----|-5-------5-------|---------1-3-----|-----------------|

Repeat last bar twice

Chorus 3A: 

   A         G       D                 A         G       D
G|-----------------|-----------------|-----------------|-----------------|
D|-----------------|-----------------|-----------------|-----------------|
A|-----------------|-5-5-5-5-5-5-5-5-|-----------------|-5-5-5-5-5-5-5-5-|
E|-5-5-5-5-5\3-3-3-|-----------------|-5-5-5-5-5\3-3-3-|-----------------|

   A         G       D                 A         G       D
G|-----------------|-----------------|-----------------|-----------------|
D|-----------------|-----------------|-----------------|-----------------|
A|-----------------|-5-5-5-5-5-5-5-5-|-----------------|-5-5-5-5-5-5-5-5-|
E|-5-5-5-5-5\3-3-3-|-----------------|-5-5-5-5-5\3-3-3-|-----------------|

Bridge: 

   A       G         F#                A       G         F#
G|-----------------|-----------------|-----------------|-----------------|
D|-----------------|-----------------|-----------------|-----------------|
A|-----------------|-----------------|-----------------|-----------------|
E|-5-5-5-5-3-3-3-3-|-2-2-2-2-2-2-2-2-|-5-5-5-5-3-3-3-3-|-2-2-2-2-2-2-2-2-|

Chorus 3B:

   A       C5        D                 A         G       D
G|--------/5-5-5-5-|-----------------|-----------------|-----------------|
D|--------/5-5-5-5-|-----------------|-----------------|-----------------|
A|-----------------|-5-5-5-5-5-5-5-5-|-----------------|-5-5-5-5-5-5-5-5-|
E|-5-5-5-5---------|-----------------|-5-5-5-5-5\3-3-3-|-----------------|

Outro: 

   A   G   D   C     A                
G|-----------------|-----------------|-----------------|-----------------|
D|-----------------|-----------------|-----------------|-----------------|
A|---------5---3---|-----------------|-----------------|-----------------|
E|-5---3-----------|-5---------------|-----------------|---------------5-|





            
            
Suggest correction
Creating personal tab
Creating personal tab
You can edit any tab online and save it as your Personal.

You can edit, replace or remove any tab part or add personal notes – all changes will be seen only by you.

Personal tabs can be accessed anytime from any device, even offline.
Learn more »
Give kudos to tab author, rate the tab!
1 2 3 4 5
comments
print report bad tab
1 comment total.
0 reply
Dback139 306 Mar 20, 2009 10:37 PM

Another excellent tab, A+

guest
You may want to rate the tab now too:
select rating
Wanna post a correction for this tab? Suggest correction