Oops, an error
Loading. Please wait.
We have an official Decibel tab made by UG professional guitarists. Check out the tab »
×
by AC/DC
3,359 views 3 this week
1 commentread comment
1 2 3 4 5
3 more votes to show rating
add to favorites
×
Save as Personal and add changes to this tab that will be seen only by you. Learn more ›
×
You can save this tab as Personal to edit and correct it or add notes. All changes will be seen only by you. Learn more »
launch autoscroll
font size
0
reset
how to read this tab
guitar tuner
edit
Autoscroll
slow
fast
+/-
esc
set tempo
stop
Author
 --------------------
|Tabbed by Giant Jack|
 --------------------

Artist - AC/DC
Song   - Decibel
Album  - Black Ice
Year   - 2008

-----------------------------------------------

Symbols:

pm - Palm Mute
h  - Hammer On
~  - Vibrato
x  - Dead Note
b  - Bend
=  - Tremolo Picking

-----------------------------------------------
         (Palm Mute 0's Only)
-----------------------------------------------

              
   Intro/Verse 1             Bridge 
pm. . . . . . .   .         . . .   . .
|---------------------|   |-------------|
|---------------------|   |-------------|
|---------------------|x11|-------------|
|---7-5---7---7h9-7~~~|   |---7-5h7---7-|
|-0-0-0-0-0-0-0---0---|   |-0-0-0---0-0-|
|---------------------|   |-------------|
   
   Chorus
|-------------|----------------------------|
|---0-------3-|----------------------3-----|
|-2-0-5--2--2-|----------2---5---2---2-----|
|-2-x-5--2--0-|----------2---5---2---0-----| x2
|-0-2-3--0--0-|----------0---3---0---0-----|
|-------------|----------------------------|

   Verse 2
pm. . . . . . .   .   .  . . . . . .   . .
|---------------------|--------------------|
|---------------------|--------------------|
|---------------------|--------------------|
|---7-5---7---7h9-7~~~|---12-5---7---7h9-7-| x2
|-0-0-0-0-0-0-0---0---|-0--0-0-0-0-0-0---0-|
|---------------------|--------------------|

                             Bridge
pm. . . . . . .   .        . . . . .  
|---------------------|  |-----------|
|---------------------|  |-----------|
|---------------------|  |-----------|
|---7-5---7---7h9-7~~~|x3|---7-5---7-|
|-0-0-0-0-0-0-0---0---|  |-0-0-0-0-0-|
|---------------------|  |-----------|

   Chorus 2/Rythem
|----------------|--------------------------|
|---0-----0------|------0-----0----3--------|
|-2-0-5-x-0-x--2-|----2-0-5-x-0-x--2--------|
|-2-x-5-x-x-x--2-|----2-x-5-x-x-x--0--------| x2
|-0-2-3-x-2-x--0-|----0-2-3-x-2-x--0--------|
|----------------|--------------------------|

   Chorus 2/Lead    
|----------------------|-----------------------|
|-8-10-13-x-12-x--10~~~|-8-10-13-x-12-x--15b~~~|
|----------------------|-----------------------|
|----------------------|-----------------------| x2
|----------------------|-----------------------|
|----------------------|-----------------------|

   Verse 3                   Bridge (Solo Starts)
pm. . . . . . .   .     .  . . . . . .   .
|---------------------|--------------------|
|---------------------|--------------------|
|---------------------|--------------------|
|---7-5---7---7h9-7~~~|---12-5---7---7h9-7-| x2
|-0-0-0-0-0-0-0---0---|-0--0-0-0-0-0-0---0-|
|---------------------|--------------------|

pm. . . . . . .   .        . . . . .  
|---------------------|  |-----------|
|---------------------|  |-----------|
|---------------------|  |-----------|
|---7-5---7---7h9-7~~~|x3|---7-5---7-|
|-0-0-0-0-0-0-0---0---|  |-0-0-0-0-0-|
|---------------------|  |-----------|


  Solo
|----------------------------171717p15--15--15-15-15-15-15-15-----|
|-10b--8b--10b-12b-13b-15b-17b--------17--17--17-17-17-17-17-17~~~|
|-----------------------------------------------------------------|
|-----------------------------------------------------------------|
|-----------------------------------------------------------------|
|-----------------------------------------------------------------|
        
                                                 Solo End
|----------------------------------------------------------|
|-----------------------------------------------8--10-12===|
|----1414p12--12-1414p12--12-1414p12--12--9--11------------|
|-12b-------14----------14----------14---------------------|
|----------------------------------------------------------|
|----------------------------------------------------------|


   Chorus 2/Rythem
|---------------|-------------------------|
|---0-----0-----|------0-----0---3--------|
|-2-0-5-x-0-x-2-|----2-0-5-x-0-x-2--------|
|-2-x-5-x-x-x-2-|----2-x-5-x-x-x-0--------| x2
|-0-2-3-x-2-x-0-|----0-2-3-x-2-x-0--------|
|---------------|-------------------------|

   Chorus 2/Lead    
|----------------------|-----------------------|
|-8-10-13-x-12-x--10~~~|-8-10-13-x-12-x--15b~~~|
|----------------------|-----------------------|
|----------------------|-----------------------| x2
|----------------------|-----------------------|
|----------------------|-----------------------|


   Chorus          (Play Fig. 1)
|------------|-----------------------|
|---0------3-|-----------------3-----|
|-2-0-5--2-2-|-----2---5---2---2-----|
|-2-x-5--2-0-|-----2---5---2---0-----| x2
|-0-2-3--0-0-|-----0---3---0---0-----|
|------------|-----------------------|


  Fig. 1
|------10p8p7----7-7--------|
|-8-10--------10-----10~~~/-|
|---------------------------|
|---------------------------|
|---------------------------|
|---------------------------|

  Fig. 2
|------------------------------|
|-15b-15-13-15----13-15--------|
|--------------14-------14~~~/-|
|------------------------------|
|------------------------------|
|------------------------------|

  Verse 4
pm. . . . . . .   .     .  . . . . . .   .
|---------------------|--------------------|
|---------------------|--------------------|
|---------------------|--------------------|
|---7-5---7---7h9-7~~~|---12-5---7---7h9-7-| x5
|-0-0-0-0-0-0-0---0---|-0--0-0-0-0-0-0---0-|
|---------------------|--------------------|


pm. . . . . . .   .     .  . . . .     
|---------------------|------------|
|---------------------|------------|
|---------------------|------------|
|---7-5---7---7h9-7~~~|---12-5---7-|
|-0-0-0-0-0-0-0---0---|-0--0-0-0-0-|
|---------------------|------------|


   Chorus 2/Rythem
|---------------|-------------------------|
|---0-----0-----|------0-----0---3--------|
|-2-0-5-x-0-x-2-|----2-0-5-x-0-x-2--------|
|-2-x-5-x-x-x-2-|----2-x-5-x-x-x-0--------| x2
|-0-2-3-x-2-x-0-|----0-2-3-x-2-x-0--------|
|---------------|-------------------------|

   Chorus 2/Lead    
|----------------------|-----------------------|
|-8-10-13-x-12-x--10~~~|-8-10-13-x-12-x--15b~~~|
|----------------------|-----------------------|
|----------------------|-----------------------| x2
|----------------------|-----------------------|
|----------------------|-----------------------|


 ------------------------------------
| I Am Jack's Lack Of Will To Finish |
 ------------------------------------



            
            
Suggest correction
Creating personal tab
Creating personal tab
You can edit any tab online and save it as your Personal.

You can edit, replace or remove any tab part or add personal notes – all changes will be seen only by you.

Personal tabs can be accessed anytime from any device, even offline.
Learn more »
Give kudos to tab author, rate the tab!
1 2 3 4 5
comments
print report bad tab
1 comment total.
0 reply
Bonorly 20 Mar 03, 2009 08:19 AM

Intro/Verse 1 Bridge
pm. . . . . . . . . . . . .
|---------------------| |-------------|
|---------------------| |-------------|
|---------------------|x11|-------------|
|---7-5---7---7h9-7~~~| |---7-5h7---7-|
|-0-0-0-0-0-0-0---0---| |-0-0-0---0-0-|
|---------------------| |-------------|

isn't right, the hammer on is to the 10th fret

Intro/Verse 1 Bridge
pm. . . . . . . . . . . . .
|---------------------| |-------------|
|---------------------| |-------------|
|---------------------|x11|-------------|
|---7-5---7---7h10-7~~| |---7-5h7---7-|
|-0-0-0-0-0-0-0---0---| |-0-0-0---0-0-|
|---------------------| |-------------|

guest
You may want to rate the tab now too:
select rating
Wanna post a correction for this tab? Suggest correction