Oops, an error
Loading. Please wait.

Hell Aint A Bad Place To Be tab

version 3
version 3

Whole song

Interactive

by AC/DC
36,547 views 159 this week
4 commentsread comments
1 2 3 4 5
x 6
add to favorites
×
Save as Personal and add changes to this tab that will be seen only by you. Learn more ›
×
You can save this tab as Personal to edit and correct it or add notes. All changes will be seen only by you. Learn more »
launch autoscroll
font size
0
reset
how to read this tab
guitar tuner
backing track
0:00
0:00
edit
Autoscroll
slow
fast
+/-
esc
set tempo
stop
Author
Difficulty
(Gtr 1) (E A D G B E) - 'Angus Young (Lead Guitar)'
(Gtr 2) (E A D G B E) - 'Malcolm Young (Rhythm Guitar)'

[Intro]
(Q=128)                             1.,2.,3.
    G5   D/F#   G5       D/F#   G5      A5
(4/4)
(Gtr 1, 2)
    Q.   E +Q   Q    +E  E +Q   Q  Q    W          +W      4x
e|--3----2-(2)--3--|-(3)-2-(2)--3--2--|----------|---------|
B|o-3----3-(3)--3--|-(3)-3-(3)--3--3--|----------|--------o|
G|--0----2-(2)--0--|-(0)-2-(2)--0--2--|-2--------|-(2)-----|
D|--0----0-(0)--0--|-(0)-0-(0)--0--0--|-2--------|-(2)-----|
A|o----------------|------------------|-0--------|-(0)----o|
E|--3----2-(2)--3--|-(3)-2-(2)--3--2--|----------|---------|

   4.
   W          +W           +W           +W
e|----------|------------|------------|--------|
B|----------|------------|------------|--------|
G|-2--------|-(2)--------|-(2)--------|-(2)----|
D|-2--------|-(2)--------|-(2)--------|-(2)----|
A|-0--------|-(0)--------|-(0)--------|-(0)----|
E|----------|------------|------------|--------|

[Pre-Verse]                                                        1.
     A7    A6      A7      A6   A7  A6    A7A            A7A
(Gtr 1)
    E E E E +E  E E E   E E Q  E E E E   E E E E H      E E E E H
e|--------------------|----------------|--------------|---------------|
B|o-------------------|----------------|--------------|--------------o|
G|--------------------|----------------|--------------|---------------|
D|--5-----4-(4)---5---|---4----5---4---|-5-7-7-7------|-5-7-7-7-------|
A|o-0---x-0-(0)---0---|---0----0---0---|-0-0-0-0------|-0-0-0-0------o|
E|--------------------|----------------|--------------|---------------|

(Gtr 2)
    E E E E +E  E E E   E E Q  E E E E   E E E E H      E E E E H
e|--------------------|----------------|--------------|---------------|
B|o-------------------|----------------|--------------|--------------o|
G|--------------------|----------------|-2-2-2-2------|-2-2-2-2-------|
D|--5-----4-(4)---5---|---4----5---4---|-2-2-2-2------|-2-2-2-2-------|
A|o-0-----0-(0)---0---|---0----0---0---|-0-0-0-0------|-0-0-0-0------o|
E|--------------------|----------------|--------------|---------------|

[Verse 1]
   2.
   A7A              A7    A6      A7      A6   A7  A6
   E E E E H        E E E E +E  E E E   E E Q  E E E E
e|--------------|--------------------|----------------|
B|--------------|o-------------------|----------------|
G|--------------|--------------------|----------------|
D|-5-7-7-7------|--5-----4-(4)---5---|---4----5---4---|
A|-0-0-0-0------|o-0---x-0-(0)---0---|---0----0---0---|
E|--------------|--------------------|----------------|

   E E E E H        E E E E +E  E E E   E E Q  E E E E
e|--------------|--------------------|----------------|
B|--------------|o-------------------|----------------|
G|-2-2-2-2------|--------------------|----------------|
D|-2-2-2-2------|--5-----4-(4)---5---|---4----5---4---|
A|-0-0-0-0------|o-0-----0-(0)---0---|---0----0---0---|
E|--------------|--------------------|----------------|

   1.,2.,3.                        4.
   A7A            A7A              A7A              A7A
   E E E E H      E E E E H     4x E E E E +H       E E E E +H
e|--------------|---------------|----------------|----------------|
B|--------------|--------------o|----------------|----------------|
G|--------------|---------------|----------------|----------------|
D|-5-7-7-7------|-5-7-7-7-------|-5-7-7-7-(7)----|-5-7-7-7-(7)----|
A|-0-0-0-0------|-0-0-0-0------o|-0-0-0-0-(0)----|-0-0-0-0-(0)----|
E|--------------|---------------|----------------|----------------|

   E E E E H      E E E E H     4x E E E E +H       E E E E +H
e|--------------|---------------|----------------|----------------|
B|--------------|--------------o|----------------|----------------|
G|-2-2-2-2------|-2-2-2-2-------|-2-2-2-2-(2)----|-2-2-2-2-(2)----|
D|-2-2-2-2------|-2-2-2-2-------|-2-2-2-2-(2)----|-2-2-2-2-(2)----|
A|-0-0-0-0------|-0-0-0-0------o|-0-0-0-0-(0)----|-0-0-0-0-(0)----|
E|--------------|---------------|----------------|----------------|

[Chorus]
   D5          G5               D5         G5          D5
(Gtr 1, 2)
   H.      +E  E   +W           W          E E E E +E  Q.
e|-------------3-|-(3)--------|----------|-3-3-3-3-(3)------|
B|-3-------(3)-3-|-(3)--------|-3--------|-3-3-3-3-(3)-3----|
G|-2-------(2)-0-|-(0)--------|-2--------|-0-0-0-0-(0)-2----|
D|-0-------(0)-0-|-(0)--------|-0--------|-0-0-0-0-(0)-0----|
A|---------------|------------|----------|------------------|
E|-------------3-|-(3)--------|----------|-3-3-3-3-(3)------|

   E           A5               E           G5
   H.      +E  E   +W           H.      +E  E   +W           +W
e|---------------|------------|-------------3-|-(3)--------|-(3)----|
B|---------------|------------|-------------3-|-(3)--------|-(3)----|
G|-1-------(1)-2-|-(2)--------|-1-------(1)-0-|-(0)--------|-(0)----|
D|-2-------(2)-2-|-(2)--------|-2-------(2)-0-|-(0)--------|-(0)----|
A|-2-------(2)-0-|-(0)--------|-2-------(2)---|------------|--------|
E|-0-------(0)---|------------|-0-------(0)-3-|-(3)--------|-(3)----|

[Pre-Verse]
                                                        1.
    A7    A6      A7      A6   A7  A6    A7A            A7A
(Gtr 1)
    E E E E +E  E E E   E E Q  E E E E   E E E E H      E E E E H
e|--------------------|----------------|--------------|---------------|
B|o-------------------|----------------|--------------|--------------o|
G|--------------------|----------------|--------------|---------------|
D|--5-----4-(4)---5---|---4----5---4---|-5-7-7-7------|-5-7-7-7-------|
A|o-0---x-0-(0)---0---|---0----0---0---|-0-0-0-0------|-0-0-0-0------o|
E|--------------------|----------------|--------------|---------------|

(Gtr 2)
    E E E E +E  E E E   E E Q  E E E E   E E E E H      E E E E H
e|--------------------|----------------|--------------|---------------|
B|o-------------------|----------------|--------------|--------------o|
G|--------------------|----------------|-2-2-2-2------|-2-2-2-2-------|
D|--5-----4-(4)---5---|---4----5---4---|-2-2-2-2------|-2-2-2-2-------|
A|o-0-----0-(0)---0---|---0----0---0---|-0-0-0-0------|-0-0-0-0------o|
E|--------------------|----------------|--------------|---------------|

[Verse 2]
   2.
   A7A              A7    A6      A7      A6   A7  A6
   E E E E H        E E E E +E  E E E   E E Q  E E E E
e|--------------|--------------------|----------------|
B|--------------|o-------------------|----------------|
G|--------------|--------------------|----------------|
D|-5-7-7-7------|--5-----4-(4)---5---|---4----5---4---|
A|-0-0-0-0------|o-0---x-0-(0)---0---|---0----0---0---|
E|--------------|--------------------|----------------|

   E E E E H        E E E E +E  E E E   E E Q  E E E E
e|--------------|--------------------|----------------|
B|--------------|o-------------------|----------------|
G|-2-2-2-2------|--------------------|----------------|
D|-2-2-2-2------|--5-----4-(4)---5---|---4----5---4---|
A|-0-0-0-0------|o-0-----0-(0)---0---|---0----0---0---|
E|--------------|--------------------|----------------|

   1.,2.,3.                        4.
   A7A            A7A              A7A              A7A
   E E E E H      E E E E H     4x E E E E +H       E E E E +H
e|--------------|---------------|----------------|----------------|
B|--------------|--------------o|----------------|----------------|
G|--------------|---------------|----------------|----------------|
D|-5-7-7-7------|-5-7-7-7-------|-5-7-7-7-(7)----|-5-7-7-7-(7)----|
A|-0-0-0-0------|-0-0-0-0------o|-0-0-0-0-(0)----|-0-0-0-0-(0)----|
E|--------------|---------------|----------------|----------------|

   E E E E H      E E E E H     4x E E E E +H       E E E E +H
e|--------------|---------------|----------------|----------------|
B|--------------|--------------o|----------------|----------------|
G|-2-2-2-2------|-2-2-2-2-------|-2-2-2-2-(2)----|-2-2-2-2-(2)----|
D|-2-2-2-2------|-2-2-2-2-------|-2-2-2-2-(2)----|-2-2-2-2-(2)----|
A|-0-0-0-0------|-0-0-0-0------o|-0-0-0-0-(0)----|-0-0-0-0-(0)----|
E|--------------|---------------|----------------|----------------|

[Chorus]
   D5          G5               D5         G5          D5
(Gtr 1, 2)
   H.      +E  E   +W           W          E E E E +E  Q.
e|-------------3-|-(3)--------|----------|-3-3-3-3-(3)------|
B|-3-------(3)-3-|-(3)--------|-3--------|-3-3-3-3-(3)-3----|
G|-2-------(2)-0-|-(0)--------|-2--------|-0-0-0-0-(0)-2----|
D|-0-------(0)-0-|-(0)--------|-0--------|-0-0-0-0-(0)-0----|
A|---------------|------------|----------|------------------|
E|-------------3-|-(3)--------|----------|-3-3-3-3-(3)------|

   E           A5               E           G5
   H.      +E  E   +W           H.      +E  E   +W           +W
e|---------------|------------|-------------3-|-(3)--------|-(3)----|
B|---------------|------------|-------------3-|-(3)--------|-(3)----|
G|-1-------(1)-2-|-(2)--------|-1-------(1)-0-|-(0)--------|-(0)----|
D|-2-------(2)-2-|-(2)--------|-2-------(2)-0-|-(0)--------|-(0)----|
A|-2-------(2)-0-|-(0)--------|-2-------(2)---|------------|--------|
E|-0-------(0)---|------------|-0-------(0)-3-|-(3)--------|-(3)----|

[Guitar Solo]
   A7    A6    A7      A6    A7          A6
(Gtr 1)
   ~~~~~~~~~~~~~~~~~~~~~~~~~~~~~~
   E E E E E E E E   E E E E +E  T T T T T T T T T T T T
e|-----------------|-------------------------------------|
B|-----------------|-------------------------------------|
G|-----------------|-------------------------------------|
D|-7-7-7-7-7-7-7-7-|-7-7-7-7-(7)-x-x-x-x-x-x-x-x-x-x-x-x-|
A|-----------------|-------------x-x-x-x-x-x-x-x-x-x-x-x-|
E|-----------------|-------------x-x-x-x-x-x-x-x-x-x-x-x-|

(Gtr 2)
     PM|   PM|   PM--|   PM|     PM              PM
 | E E E E E E E E   E E E E  E  E       E       E
e|-----------------|-------------------------------------|
B|-----------------|-------------------------------------|
G|-----------------|-------------------------------------|
D|-5-----4-----5---|---4------5----------4---------------|
A|-0-0-0-0-0-0-0-0-|-0-0-0-0--0--0-------0-------0-------|
E|-----------------|-------------------------------------|

   A
                                                   ~~~~~~~~~~~~PM--|     ~
                                                               |-3-|
   T T T T T T T T T T T T T T T T E E +Q          H       +E  S S S E   E
e|-----------------------------------------------|-------------------------|
B|-----------------------------------5-(5)b5.5---|-------------------------|
G|-----------------------------------5-(5)b5.5---|-------------------7b9-7-|
D|-x-x-x-x-x-x-x-x-x-x-x-x-x-x-x-x---5-(5)b5.5---|-7-------(7)-0h5h7-------|
A|-x-x-x-x-x-x-x-x-x-x-x-x-x-x-x-x---------------|-------------------------|
E|-x-x-x-x-x-x-x-x-x-x-x-x-x-x-x-x---------------|-------------------------|

                                  PM----------|            PM-----------|
   E       E       E       E       E E  E      E   E E E E  E  E     E   E
e|-----------------------------------------------|-------------------------|
B|-----------------------------------------------|-------------------------|
G|-2-------2-------2-------2---------------------|-2-2-2-2-----------------|
D|-2-------2-------2-------2---------------------|-2-2-2-2-----------------|
A|-0-------0-------0-------0-------0-0--0------0-|-0-0-0-0--0--0-----0---0-|
E|-----------------------------------------------|-------------------------|

   A7        A6      A7          A6            A7  A6
             ~           ~~~~~~~~
                                         |-3-|
   +Q    E   E +Q    E   E   +E  S S S S S S S E E E     E
e|-------------------------|-------5---5-------------------|
B|-------------------------|-------5-8-5---5---------------|
G|-(7)---7b9-7-(7)---7b9-7-|-(7)-7-------7---5---7-5b5.5---|
D|-------------------------|-------------------7---------7-|
A|-------------------------|-------------------------------|
E|-------------------------|-------------------------------|

       PM|      PM-|     PM--|       PM--|       PM      PM
    E  E E   E  E  E E   E    E  E   E   E     E E E     E
e|-------------------------|-------------------------------|
B|-------------------------|-------------------------------|
G|-------------------------|-------------------------------|
D|--5--------4-------5-----|-----4-------------5---4-------|
A|--0--0-0---0--0--0-0---0-|--0--0---0---0-----0-0-0-----0-|
E|-------------------------|-------------------------------|

   A
   Q    E E     +E   E    E    E
e|----------------------------------|
B|--------8b10==(8)r-8b10-8b10-8b10-|
G|----------------------------------|
D|-7\-------------------------------|
A|----------------------------------|
E|----------------------------------|

                PM------------|
   E  E E E      E   E    E    E
e|----------------------------------|
B|----------------------------------|
G|-2--2-2-2-------------------------|
D|-2--2-2-2-------------------------|
A|-0--0-0-0------0---0----0----0----|
E|----------------------------------|

   A
        ~~~~~
   E    Q.        +E  +E   E S S
e|-------------------------x-x-x-|
B|-8b10-8b10======(8)r(8)\-x-x-x-|
G|-------------------------x-x-x-|
D|-------------------------------|
A|-------------------------------|
E|-------------------------------|

                  PM--------|
   E    E     E E  E   E   E E
e|-------------------------------|
B|-------------------------------|
G|-2----2-----2-2----------------|
D|-2----2-----2-2----------------|
A|-0----0-----0-0--0---0---0-0---|
E|-------------------------------|

   A7       A6       A7          A6       A7     A6
   E  E  Q      E  E  Q        E  E  Q      E  Q    E
e|-x-----------------------|--------------------------|
B|-x-10-10\-------10-10\---|-----10-10\---/10-10---12-|
G|-x----------/11----------|-/11----------------------|
D|-------------------------|--------------------------|
A|-------------------------|--------------------------|
E|-------------------------|--------------------------|

      PM|       PM|      PM--|       PM-|      PM   PM
   E  E  E  E   E  E  E  E     E  E  E  E   E  E E  E
e|-------------------------|--------------------------|
B|-------------------------|--------------------------|
G|-------------------------|--------------------------|
D|-5--------4---------5----|------4---------5----4----|
A|-0--0--0--0---0--0--0--0-|---0--0--0--0---0--0-0--0-|
E|-------------------------|--------------------------|

   A
           ~~                                  ~~
    +Q     Q    +E   E  E  E        +Q      E  E  +E   E  E  E
e|-------------------------------|--------------------------------|
B|-(12)---12---(12)r12\---13b15==|=(13)r---13-10-(10)-10\---15b17-|
G|-------------------------------|--------------------------------|
D|-------------------------------|--------------------------------|
A|-------------------------------|--------------------------------|
E|-------------------------------|--------------------------------|

                PM-------|                        PM-------|
     E  E  E E   E   E  E  E         E   E  E  E   E   E  E  E
e|-------------------------------|--------------------------------|
B|-------------------------------|--------------------------------|
G|---2--2--2-2-------------------|---2---2--2--2------------------|
D|---2--2--2-2-------------------|---2---2--2--2------------------|
A|---0--0--0-0---0---0--0--0-----|---0---0--0--0---0---0--0--0----|
E|-------------------------------|--------------------------------|

   A7          A6       A7
            ~~~~
    +Q     +Q     +Q     E  +S   S
e|---------------------------------|
B|-(15)---(15)---(15)---15r(15)p13-|
G|---------------------------------|
D|---------------------------------|
A|---------------------------------|
E|---------------------------------|

        PM|        PM-|      PM
     E  E   E  E   E  E  E   E
e|---------------------------------|
B|---------------------------------|
G|---------------------------------|
D|---5---------4---------5---------|
A|---0--0---0--0---0--0--0---0-----|
E|---------------------------------|

         A6          A7       A6
    Q       E  E      +E    E  E     E
e|---------15--------------15--------------|
B|-15b17------15b17==(15)r----15b17-15b17==|
G|-----------------------------------------|
D|-----------------------------------------|
A|-----------------------------------------|
E|-----------------------------------------|

    PM      PM              PM       PM
    E    E  E  E       E    E  E     E
e|-----------------------------------------|
B|-----------------------------------------|
G|-----------------------------------------|
D|-------4-------------5-------4-----------|
A|--0----0--0--0-------0----0--0-----0-----|
E|-----------------------------------------|

   A
     ~~~~                          ~~~~~~
    +Q.      +E   +E   Q      E    H            +E   +E   E  E
e|---------------------------15-|---------------------------15b17==|
B|-(15)-----(15)r(15)-15b17-----|-15b17========(15)r(15)\----------|
G|------------------------------|----------------------------------|
D|------------------------------|----------------------------------|
A|------------------------------|----------------------------------|
E|------------------------------|----------------------------------|

     E  E E   E   +H               E     E E E  +H
e|------------------------------|----------------------------------|
B|------------------------------|----------------------------------|
G|---2--2-2---2---(2)-----------|--2-----2-2-2--(2)----------------|
D|---2--2-2---2---(2)-----------|--2-----2-2-2--(2)----------------|
A|---0--0-0---0---(0)-----------|--0-----0-0-0--(0)----------------|
E|------------------------------|----------------------------------|

   A
    +Q      E     E      +E   +E   +E   E
e|-(15)r---15b17-15b17==(15)-(15)r(15)-----|
B|-----------------------------------------|
G|-----------------------------------------|
D|-------------------------------------(0)-|
A|-----------------------------------------|
E|-----------------------------------------|

     E   E  E     E      +H
e|-----------------------------------------|
B|-----------------------------------------|
G|---2---2--2-----2------(2)---------------|
D|---2---2--2-----2------(2)---------------|
A|---0---0--0-----0------(0)---------------|
E|-----------------------------------------|

   H.=H
                                                             2/4
    Q       E     E      +H        +W             W            H
e|-15b17---15b17-15b17==(15)----|-(15)r--------|------------|--------|
B|------------------------------|--------------|------------|--------|
G|------------------------------|--------------|------------|--------|
D|------------------------------|--------------|------------|--------|
A|------------------------------|--------------|------------|--------|
E|------------------------------|--------------|------------|--------|

    E    E  E     E      +H        +W            +W           +H
e|------------------------------|--------------|------------|--------|
B|------------------------------|--------------|------------|--------|
G|--2----2--2-----2------(2)----|--(2)---------|-(2)--------|-(2)----|
D|--2----2--2-----2------(2)----|--(2)---------|-(2)--------|-(2)----|
A|--0----0--0-----0------(0)----|--(0)---------|-(0)--------|-(0)----|
E|------------------------------|--------------|------------|--------|

[Chorus]
   D5          G5               D5         G5          D5
  4/4
(Gtr 1, 2)
   H.      +E  E   +W           W          E E E E +E  Q.
e|-------------3-|-(3)--------|----------|-3-3-3-3-(3)------|
B|-3-------(3)-3-|-(3)--------|-3--------|-3-3-3-3-(3)-3----|
G|-2-------(2)-0-|-(0)--------|-2--------|-0-0-0-0-(0)-2----|
D|-0-------(0)-0-|-(0)--------|-0--------|-0-0-0-0-(0)-0----|
A|---------------|------------|----------|------------------|
E|-------------3-|-(3)--------|----------|-3-3-3-3-(3)------|

   E           A5               E         G5
   H.      +E  E   +W           H.      E E   +W
e|---------------|------------|-----------3-|-(3)----|
B|---------------|------------|-----------3-|-(3)----|
G|-1-------(1)-2-|-(2)--------|-1-------0-0-|-(0)----|
D|-2-------(2)-2-|-(2)--------|-2-------0-0-|-(0)----|
A|-2-------(2)-0-|-(0)--------|-2-----------|--------|
E|-0-------(0)---|------------|-0---------3-|-(3)----|

[Outro]
Q=128                              1.,2.,3.
    A7    A6    A7      A6    A7  A6    A7A5              A7A5
(Gtr 1)
      PM|   PM|   PM--|   PM|   PM  PM          PM----|           PM----|
    E E E E E E E E   E E E E E E E E   E E E E E E E E   E E E E E E E E   (4x)
e|------------------|-----------------|-----------------|-------------------|
B|o-----------------|-----------------|-----------------|------------------o|
G|------------------|-----------------|-----------------|-------------------|
D|--5-----4-----5---|---4-----5---4---|-5-7-7-7---------|-5-7-7-7-----------|
A|o-0-0-0-0-0-0-0-0-|-0-0-0-0-0-0-0-0-|-0-0-0-0-0-0-0-0-|-0-0-0-0-0-0-0-0--o|
E|------------------|-----------------|-----------------|-------------------|

(Gtr 2)
      PM|   PM|   PM--|   PM|   PM  PM          PM----|           PM----|
    E E E E E E E E   E E E E E E E E   E E E E E E E E   E E E E E E E E   (4x)
e|------------------|-----------------|-----------------|-------------------|
B|o-----------------|-----------------|-----------------|------------------o|
G|------------------|-----------------|-2-2-2-2---------|-2-2-2-2-----------|
D|--5-----4-----5---|---4-----5---4---|-2-2-2-2---------|-2-2-2-2-----------|
A|o-0-0-0-0-0-0-0-0-|-0-0-0-0-0-0-0-0-|-0-0-0-0-0-0-0-0-|-0-0-0-0-0-0-0-0--o|
E|------------------|-----------------|-----------------|-------------------|

   4.
   A7A5             A7A5
   E E E E +H       E E E E +H
e|----------------|----------------|
B|----------------|----------------|
G|----------------|----------------|
D|-5-7-7-7-(7)----|-5-7-7-7-(7)----|
A|-0-0-0-0-(0)----|-0-0-0-0-(0)----|
E|----------------|----------------|

   E E E E +H       E E E E +H
e|----------------|----------------|
B|----------------|----------------|
G|-2-2-2-2-(2)----|-2-2-2-2-(2)----|
D|-2-2-2-2-(2)----|-2-2-2-2-(2)----|
A|-0-0-0-0-(0)----|-0-0-0-0-(0)----|
E|----------------|----------------|

                    rall. Q=80                    a tempo Q=128
   A7A5             A7A5
   E E E E +H       E E E E +H       +H.      +E  S S   E E Q  H
e|----------------|----------------|------------------|-------------*|
B|----------------|----------------|------------------|-------------*|
G|----------------|----------------|------------------|-------------*|
D|-5-7-7-7-(7)----|-5-7-7-7-(7)----|-(7)------(7)-7-7-|-7-----------*|
A|-0-0-0-0-(0)----|-0-0-0-0-(0)----|-(0)------(0)-0-0-|-0-----------*|
E|----------------|----------------|------------------|-------------*|

   E E E E +H       E E E E +H       +H.      +E  S S   E E Q  H
e|----------------|----------------|------------------|-------------*|
B|----------------|----------------|------------------|-------------*|
G|-2-2-2-2-(2)----|-2-2-2-2-(2)----|-(2)------(2)-2-2-|-2-----------*|
D|-2-2-2-2-(2)----|-2-2-2-2-(2)----|-(2)------(2)-2-2-|-2-----------*|
A|-0-0-0-0-(0)----|-0-0-0-0-(0)----|-(0)------(0)-0-0-|-0-----------*|
E|----------------|----------------|------------------|-------------*|


************************************

| (n)  Ghost note
| x    Dead note
| ~    Vibrato
| PM   Palm mute
| b    Bend
| h    Hammer-on
| \    Slide down
| /    Slide up
| *    Natural harmonic

************************************

            
            
Suggest correction
Creating personal tab
Creating personal tab
You can edit any tab online and save it as your Personal.

You can edit, replace or remove any tab part or add personal notes – all changes will be seen only by you.

Personal tabs can be accessed anytime from any device, even offline.
Learn more »
comments
print report bad tab
4 comments total. Showing first comments.
+2 reply
falex 10 May 16, 2006 11:04 PM

God I Love This Song

+1 reply
AngusYoungsheir 111 Dec 15, 2006 09:53 AM

Good tab. But this is not advanced. If this is advanced, then I'm Steve Vai.

+1 reply
Soadfan8 30 Nov 30, 2008 12:20 PM

excellent tab

guest
You may want to rate the tab now too:
select rating
Wanna post a correction for this tab? Suggest correction