Oops, an error
Loading. Please wait.

Hell Or High Water tab

version 2
version 2

Whole song

by AC/DC
1,849 views 1 this week
no commentswrite comment
1 2 3 4 5
1 last vote to show rating
add to favorites
×
Save as Personal and add changes to this tab that will be seen only by you. Learn more ›
×
You can save this tab as Personal to edit and correct it or add notes. All changes will be seen only by you. Learn more »
launch autoscroll
font size
0
reset
how to read this tab
guitar tuner
edit
Autoscroll
slow
fast
+/-
esc
set tempo
stop
Author
Difficulty
#----------------------------------PLEASE NOTE---------------------------------#
#This file is the author's own work and represents their interpretation of the #
#song. You may only use this file for private study, scholarship, or research. #
#------------------------------------------------------------------------------##

                               HELL OR HIGH WATER
                              As recorded by AC/DC
                      (From the 1986 Album FLY ON THE WALL)

Transcribed by Brian Murtagh

Gtr I (E A D G B E) - 'Angus'
Gtr II (E A D G B E) - 'Malcolm'
Gtr III (E A D G B E) - 'Overdub'

  Q=112
 4/4
  Gtr I
  W          H.      E e
|----------|-------------|
|----------|-----------8-|
|----------|-----------7-|
|----------|-------------|
|----------|-------------|
|----------|-------------|
|
| Gtr II
| W          W
|----------|-------------|
|----------|-------------|
|----------|-------------|
|----------|-------------|
|----------|-------------|
|----------|-------------|


  Gtr I
   e  e e e e e e e   e e e e e e e e   e e e e e e e e   e e e e e e e  e
|-------------------|-----------------|-----------------|------------------|
|--8--6-6-5-5-6-6-8-|-8-6-6-5-5-6-6-8-|-8-6-6-5-5-6-6-8-|-8-6-6-5-5-6-6-10-|
|--7------5-5-5-5-7-|-7-----5-5-5-5-7-|-7-----5-5-5-5-7-|-7-----5-5-5-5--9-|
|-------------------|-----------------|-----------------|------------------|
|-------------------|-----------------|-----------------|------------------|
|-------------------|-----------------|-----------------|------------------|
|
| Gtr II
|                                       <
|  PM-----------------------------------------------------------|
|  H        E E E E   E E E E E E E E   E E E E E E E E   E E E E E E E  E
|-------------------|-----------------|-----------------|------------------|
|-------------------|-----------------|-----------------|------------------|
|-------------------|-----------------|-----5---5---5---|-4---5---5---5--2-|
|-(5)-------5-5-5-5-|-5-5-5-5-5-5-5-5-|-5-5-5-5-5-5-5-5-|-5-5-5-5-5-5-5--2-|
|-------------------|-----------------|-----------------|----------------0-|
|-------------------|-----------------|-----------------|------------------|


  Gtr I
   e e e e e e e  e    e  e e e e e  e   e
|-------------------|----------------------|
|-10-8-8-7-7-8-8-10-|-10--8-8-7-7-8--8--10-|
|--9-7-7-7-7-7-7--9-|--9--7-7-7-7-7--7---9-|
|-------------------|----------------------|
|-------------------|----------------------|
|-------------------|----------------------|
|
| Gtr II
|  W                  +H.           +E   E
|-------------------|----------------------|
|-------------------|----------------------|
|--2----------------|-(2)-----------(2)--2-|
|--2----------------|-(2)-----------(2)--2-|
|--0----------------|-(0)-----------(0)--0-|
|-------------------|----------------------|


   e e e e e e e  e    e  e e e e e  Q
|-------------------|---------------------|
|-10-8-8-7-7-8-8-10-|-10--8-8-7-7-8--8\---|
|--9-7-7-7-7-7-7--9-|--9--7-7-7-7-7--7\---|
|-------------------|---------------------|
|-------------------|---------------------|
|-------------------|---------------------|
|
|  W                  +H.           +E  E
|-------------------|---------------------|
|-------------------|---------------------|
|--2----------------|-(2)-----------(2)---|
|--2----------------|-(2)-----------(2)---|
|--0----------------|-(0)-----------(0)-2-|
|-------------------|---------------------|


    Gtr I
    E E E  E  Q  Q     S  S  E  E E E  E  Q
||-------------------|-------------------------|
||o------------------|-9--9-10-10-9-9-10-10\---|
||------2--2-----4/--|-9--9--9--9-9-9--9--9\---|
||--7s4-2--2--2--4/--|-------------------------|
||o-5s2-0--0--2--2/--|-------------------------|
||------------0------|-------------------------|
|
|   Gtr II
|   E E E +E  Q  Q     H.                 E  E
||-------------------|-------------------------|
||o------------------|-------------------------|
||------2-(2)----4/--|-------------------------|
||--7s4-2-(2)-2--4/--|-------------------------|
||o-5s2-0-(0)-2--2/--|-----------------------2-|
||------------0------|-------------------------|


 1.
  E E E +E  Q  Q     S  S  E  E E E  E  Q
|------------------|---------------------------||
|------------------|-9--9-10-10-9-9-10-10\----o||
|-----2-(2)----4/--|-9--9--9--9-9-9--9--9\-----||
|-7s4-2-(2)-2--4/--|---------------------------||
|-5s2-0-(0)-2--2/--|--------------------------o||
|-----------0------|---------------------------||
|
| E E E +E  Q  Q     H.                 E  E
|------------------|---------------------------||
|------------------|--------------------------o||
|-----2-(2)----4/--|---------------------------||
|-7s4-2-(2)-2--4/--|---------------------------||
|-5s2-0-(0)-2--2/--|-----------------------2--o||
|-----------0------|---------------------------||


    2.
    Gtr I
    E E E +E  Q  Q     S  S  E  E E E Q    e      e   e e e e e e  e  3x
||-------------------|-----------------------||-----------------------||
||o------------------|-9--9-10-10-9-9-----10-||o-10---8-8-7-7-8-8-10-o||
||------2-(2)----4/--|-9--9--9--9-9-9------9-||---9---7-7-7-7-7-7--9--||
||--7s4-2-(2)-2--4/--|-----------------------||-----------------------||
||o-5s2-0-(0)-2--2/--|-----------------------||o---------------------o||
||------------0------|-----------------------||-----------------------||
|
|   Gtr II
|   E E E +E  Q  Q     H.               E  E     +H..              E  3x
||-------------------|-----------------------||-----------------------||
||o------------------|-----------------------||o---------------------o||
||------2-(2)----4/--|---------------------2-||--(2)---------------2--||
||--7s4-2-(2)-2--4/--|---------------------2-||--(2)---------------2--||
||o-5s2-0-(0)-2--2/--|---------------------0-||o-(0)---------------0-o||
||------------0------|-----------------------||-----------------------||


  Gtr I
   e   e e e e e e E   E E E +E  Q  Q     W          E E E +E  Q  Q
|--------------------|------------------|----------|------------------|
|-10---8-8-7-7-8-8---|------------------|----------|------------------|
|--9---7-7-7-7-7-7---|-----2-(2)----4/--|----------|-----2-(2)----4/--|
|--------------------|-7s4-2-(2)-2--4/--|----------|-7s4-2-(2)-2--4/--|
|------------------2-|-5s2-0-(0)-2--2/--|----------|-5s2-0-(0)-2--2/--|
|--------------------|-----------0------|----------|-----------0------|
|
| Gtr II
|  H..             E   E E E +E  Q  Q     W          E E E +E  Q  Q
|--------------------|------------------|----------|------------------|
|--------------------|------------------|----------|------------------|
|--2-----------------|-----2-(2)----4/--|----------|-----2-(2)----4/--|
|--2-----------------|-7s4-2-(2)-2--4/--|----------|-----2-(2)-2--4/--|
|--0---------------2-|-5s2-0-(0)-2--2/--|----------|-5-2-0-(0)-2--2/--|
|--------------------|-----------0------|----------|-----------0------|


  H..        e      e   e e e e e e  e  3x
|--------------||-----------------------||
|-----------10-||o-10---8-8-7-7-8-8-10-o||
|------------9-||---9---7-7-7-7-7-7--9--||
|--------------||-----------------------||
|--------------||o---------------------o||
|--------------||-----------------------||
|
| H..        E     +H..              E  3x
|--------------||-----------------------||
|--------------||o---------------------o||
|------------2-||--(2)---------------2--||
|------------2-||--(2)---------------2--||
|------------0-||o-(0)---------------0-o||
|--------------||-----------------------||


  Gtr I
   e   e e e e e e E   E E E +E  Q  Q     H..       E   E E E +E  Q  Q
|--------------------|------------------|-------------|------------------|
|-10---8-8-7-7-8-8---|------------------|-------------|------------------|
|--9---7-7-7-7-7-7---|-----2-(2)----4/--|-------------|-----2-(2)----4/--|
|--------------------|-7s4-2-(2)-2--4/--|-----------4-|-7s4-2-(2)-2--4/--|
|------------------2-|-5s2-0-(0)-2--2/--|-----------2-|-5s2-0-(0)-2--2/--|
|--------------------|-----------0------|-------------|-----------0------|
|
| Gtr II
|  H..             E   E E E +E  Q  Q     H..       E   E E E +E  Q  Q
|--------------------|------------------|-------------|------------------|
|--------------------|------------------|-------------|------------------|
|--2-----------------|-----2-(2)----4/--|-------------|-----2-(2)----4/--|
|--2-----------------|-7s4-2-(2)-2--4/--|-----------4-|-7s4-2-(2)-2--4/--|
|--0---------------2-|-5s2-0-(0)-2--2/--|-----------2-|-5s2-0-(0)-2--2/--|
|--------------------|-----------0------|-------------|-----------0------|


  Gtr I
  Q.   E +H          +Q.     E +H          +Q.     E +H          E Q  Q  Q  E
|------------------|---------------------|---------------------|--------------|
|------------------|---------------------|---------------------|-3----3-------|
|------------------|---------------------|---------------------|-2-2--2--2----|
|------2-(2)-------|-(2)-----2-(2)-------|-(2)-----2-(2)-------|-0-2--0--2--4-|
|------2-(2)-------|-(2)-----2-(2)-------|-(2)-----2-(2)-------|---0-----0--2-|
|------0-(0)-------|-(0)-----0-(0)-------|-(0)-----0-(0)-------|--------------|
|
| Gtr II
| Q.   E  E  E E E    E  E E E  E  E E E    E  E E E  E  E E E   E Q  Q  Q  E
|------------------|---------------------|---------------------|--------------|
|------------------|---------------------|---------------------|-3----3-------|
|------------------|---------------------|---------------------|-2-2--2--2----|
|------2--2--2-2-2-|--2--2-2-2--2--2-2-2-|--2--2-2-2--2--2-2-2-|-0-2--0--2--4-|
|------2--2--2-2-2-|--2--2-2-2--2--2-2-2-|--2--2-2-2--2--2-2-2-|---0-----0--2-|
|------0--0--0-0-0-|--0--0-0-0--0--0-0-0-|--0--0-0-0--0--0-0-0-|--------------|


    Gtr I
    E E E  E  Q  Q     S  S  E  E E E  E  Q
||-------------------|-------------------------|
||o------------------|-9--9-10-10-9-9-10-10\---|
||------2--2-----4/--|-9--9--9--9-9-9--9--9\---|
||--7s4-2--2--2--4/--|-------------------------|
||o-5s2-0--0--2--2/--|-------------------------|
||------------0------|-------------------------|
|
|   Gtr II
|   E E E +E  Q  Q     H.                 E  E
||-------------------|-------------------------|
||o------------------|-------------------------|
||------2-(2)----4/--|-------------------------|
||--7s4-2-(2)-2--4/--|-------------------------|
||o-5s2-0-(0)-2--2/--|-----------------------2-|
||------------0------|-------------------------|


 1.
  E E E +E  Q  Q     S  S  E  E E E  E  Q
|------------------|---------------------------||
|------------------|-9--9-10-10-9-9-10-10\----o||
|-----2-(2)----4/--|-9--9--9--9-9-9--9--9\-----||
|-7s4-2-(2)-2--4/--|---------------------------||
|-5s2-0-(0)-2--2/--|--------------------------o||
|-----------0------|---------------------------||
|
| E E E +E  Q  Q     H.                 E  E
|------------------|---------------------------||
|------------------|--------------------------o||
|-----2-(2)----4/--|---------------------------||
|-7s4-2-(2)-2--4/--|---------------------------||
|-5s2-0-(0)-2--2/--|-----------------------2--o||
|-----------0------|---------------------------||


    2.
    Gtr I
    E E E +E  Q  Q     S  S  E  E E E Q    e      e   e e e e e e  e  3x
||-------------------|-----------------------||-----------------------||
||o------------------|-9--9-10-10-9-9-----10-||o-10---8-8-7-7-8-8-10-o||
||------2-(2)----4/--|-9--9--9--9-9-9------9-||---9---7-7-7-7-7-7--9--||
||--7s4-2-(2)-2--4/--|-----------------------||-----------------------||
||o-5s2-0-(0)-2--2/--|-----------------------||o---------------------o||
||------------0------|-----------------------||-----------------------||
|
|   Gtr II
|   E E E +E  Q  Q     H.               E  E     +H..              E  3x
||-------------------|-----------------------||-----------------------||
||o------------------|-----------------------||o---------------------o||
||------2-(2)----4/--|---------------------2-||--(2)---------------2--||
||--7s4-2-(2)-2--4/--|---------------------2-||--(2)---------------2--||
||o-5s2-0-(0)-2--2/--|---------------------0-||o-(0)---------------0-o||
||------------0------|-----------------------||-----------------------||


  Gtr I
   e   e e e e e e E   E E E +E  Q  Q     W          E E E +E  Q  Q
|--------------------|------------------|----------|------------------|
|-10---8-8-7-7-8-8---|------------------|----------|------------------|
|--9---7-7-7-7-7-7---|-----2-(2)----4/--|----------|-----2-(2)----4/--|
|--------------------|-7s4-2-(2)-2--4/--|----------|-7s4-2-(2)-2--4/--|
|------------------2-|-5s2-0-(0)-2--2/--|----------|-5s2-0-(0)-2--2/--|
|--------------------|-----------0------|----------|-----------0------|
|
| Gtr II
|  H..             E   E E E +E  Q  Q     W          E E E +E  Q  Q
|--------------------|------------------|----------|------------------|
|--------------------|------------------|----------|------------------|
|--2-----------------|-----2-(2)----4/--|----------|-----2-(2)----4/--|
|--2-----------------|-7s4-2-(2)-2--4/--|----------|-----2-(2)-2--4/--|
|--0---------------2-|-5s2-0-(0)-2--2/--|----------|-5-2-0-(0)-2--2/--|
|--------------------|-----------0------|----------|-----------0------|


  Gtr I
  Q.   E +H          +Q.     E +H          +Q.     E +H          E Q  Q  Q  E
|------------------|---------------------|---------------------|--------------|
|------------------|---------------------|---------------------|-3----3-------|
|------------------|---------------------|---------------------|-2-2--2--2----|
|------2-(2)-------|-(2)-----2-(2)-------|-(2)-----2-(2)-------|-0-2--0--2--4-|
|------2-(2)-------|-(2)-----2-(2)-------|-(2)-----2-(2)-------|---0-----0--2-|
|------0-(0)-------|-(0)-----0-(0)-------|-(0)-----0-(0)-------|--------------|
|
| Gtr II
| Q.   E  E  E E E    E  E E E  E  E E E    E  E E E  E  E E E   E Q  Q  Q  E
|------------------|---------------------|---------------------|--------------|
|------------------|---------------------|---------------------|-3----3-------|
|------------------|---------------------|---------------------|-2-2--2--2----|
|------2--2--2-2-2-|--2--2-2-2--2--2-2-2-|--2--2-2-2--2--2-2-2-|-0-2--0--2--4-|
|------2--2--2-2-2-|--2--2-2-2--2--2-2-2-|--2--2-2-2--2--2-2-2-|---0-----0--2-|
|------0--0--0-0-0-|--0--0-0-0--0--0-0-0-|--0--0-0-0--0--0-0-0-|--------------|


    Gtr I
    E E E  E  Q  Q     S  S  E  E E E  E  Q
||-------------------|-------------------------|
||o------------------|-9--9-10-10-9-9-10-10\---|
||------2--2-----4/--|-9--9--9--9-9-9--9--9\---|
||--7s4-2--2--2--4/--|-------------------------|
||o-5s2-0--0--2--2/--|-------------------------|
||------------0------|-------------------------|
|
|   Gtr II
|   E E E +E  Q  Q     H.                 E  E
||-------------------|-------------------------|
||o------------------|-------------------------|
||------2-(2)----4/--|-------------------------|
||--7s4-2-(2)-2--4/--|-------------------------|
||o-5s2-0-(0)-2--2/--|-----------------------2-|
||------------0------|-------------------------|


  E E E +E  Q  Q     S  S  E  E E E  E  E  E
|------------------|-----------------------3---||
|------------------|-9--9-10-10-9-9-10-10\-3--o||
|-----2-(2)----4/--|-9--9--9--9-9-9--9--9\-0---||
|-7s4-2-(2)-2--4/--|-----------------------0---||
|-5s2-0-(0)-2--2/--|-----------------------x--o||
|-----------0------|-----------------------3---||
|
| E E E +E  Q  Q     H.                 E  E
|------------------|---------------------------||
|------------------|--------------------------o||
|-----2-(2)----4/--|---------------------------||
|-7s4-2-(2)-2--4/--|---------------------------||
|-5s2-0-(0)-2--2/--|--------------------------o||
|-----------0------|-----------------------3---||


  Gtr I
  +H..             E   +H..             E
|-(3)--------------3-|-(3)--------------3-|
|-(3)--------------3-|-(3)--------------3-|
|-(0)--------------0-|-(0)--------------0-|
|-(0)--------------0-|-(0)--------------0-|
|------------------x-|------------------x-|
|-(3)--------------3-|-(3)--------------3-|
|
| Gtr II
|  PM--------------------------------------
|  E   E E E E E E E    E   E E E E E E E
|--------------------|--------------------|
|--------------------|--------------------|
|--------------------|--------------------|
|--------------------|--------------------|
|--------------------|--------------------|
|--3---3-3-3-3-3-3-3-|--3---3-3-3-3-3-3-3-|


  +H..             E   +H..
|-(3)--------------3-|-(3)----------------|
|-(3)--------------3-|-(3)----------------|
|-(0)--------------0-|-(0)----------------|
|-(0)--------------0-|-(0)----------------|
|------------------x-|--------------------|
|-(3)--------------3-|-(3)----------------|
|
|---------------------------------------|
|  E   E E E E E E E    E   E E E E E E E
|--------------------|--------------------|
|--------------------|--------------------|
|--------------------|--------------------|
|--------------------|--------------------|
|--------------------|--------------------|
|--3---3-3-3-3-3-3-3-|--3---3-3-3-3-3-3-3-|


  Gtr I
                    PM--------|
  q  E S S E E Q    e e e e e e Q     q  E S S E E Q
|------3-3-3-2----|-----------------|------3-3-3-2----|
|------3-3-3-3----|-----------------|------3-3-3-3----|
|-2----0-0-0-2----|-----------------|-2----0-0-0-2----|
|-2---------------|-7-7-5-5-7-7-----|-2---------------|
|-0---------------|-------------7\--|-0---------------|
|-----------------|-----------------|-----------------|
|
| Gtr II
| q  E S S E E Q    W                 q  E S S E E Q
|-----------------|-----------------|-----------------|
|-----------------|-----------------|-----------------|
|-2----------7----|-----------------|-2----------7----|
|-2----5-5-5-7----|-----------------|-2----5-5-5-7----|
|-0----5-5-5-5----|-----------------|-0----5-5-5-5----|
|------3-3-3------|-----------------|------3-3-3------|


                    ~~~~
  E  E  E       E  +H       q  E S S E E Q
|-------------------------|------3-3-3-2----|
|-------------------------|------3-3-3-3----|
|--------------14-(14)----|-2----0-0-0-2----|
|-------------------------|-2---------------|
|---12-15b15.5------------|-0---------------|
|-------------------------|-----------------|
|
|                   ~~~~
| E  E  E       E  +H       q  E S S E E Q
|-------------------------|-----------------|
|-------------------------|-----------------|
|---------------2--(2)----|-2----------7----|
|-------------------------|-2----5-5-5-7----|
|----0--3b3.5-------------|-0----5-5-5-5----|
|-------------------------|------3-3-3------|


  Gtr I
           ~~~
  E E E E +H       q  E S S E Q.      H..       E
|----------------|------3-3-3-2----|------------------|
|----------------|------3-3-3-3----|------------6b8===|
|-------7-(7)----|-2----0-0-0-2----|------------------|
|-------7-(7)----|-2---------------|--x\--------------|
|----------------|-0---------------|--x\--------------|
|---5-8----------|-----------------|------------------|
|
| Gtr II
| E E E E +H       q  E S S E Q.     +H..       E
|----------------|-----------------|------------3-----|
|-------3-(3)----|-----------------|------------3-----|
|---2-5-2-(2)----|-2----------7----|-(7)--------0-----|
|---2-5-0-(0)----|-2----5-5-5-7----|-(7)--------0-----|
|---0-3----------|-0----5-5-5-5----|-(5)--------------|
|----------------|------3-3-3------|------------3-----|


  Gtr I
   ~~~~                           ~~~
  +Q     S S S S S S S S S S E   +E  S S S S S S S S S S S S E
|--------3---------------------|-----------------------------------|
|-(6)r-----3-6-5-3s2-----------|-----------------------------------|
|--------------------3---5-----|-----5p3p0h5p3p0h5p3p0h5p3p0-7b10==|
|----------------------5---5-5-|-(5)-------------------------------|
|------------------------------|-----------------------------------|
|------------------------------|-----------------------------------|
|
| Gtr II
| +E   E Q       Q       E   E   +E  E   Q       Q       E   E
|-(3)--3---------------------3-|-(3)-3-----------------------3-----|
|-(3)--3---------------------3-|-(3)-3-----------------------3-----|
|-(0)--0---------------------0-|-(0)-0-----------------------0-----|
|-(0)--0-3-------2-------3---0-|-(0)-0---3-------2-------3---0-----|
|--------3-------3-------3-----|---------3-------3-------3---------|
|-(3)--3---------------------3-|-(3)-3-----------------------3-----|


                                                ~~~
               |-3-|
   E   S S S S S S S E E     +Q       Q    e E +Q.    E
|----------------------------------|------------------------|
|----------------------------------|------------------8b10==|
|-[7]r-7-6-5s3h5p3---5-------------|------------------------|
|------------------5---3b3.5-(3)---|-------5-5-(5)----------|
|----------------------------------|------------------------|
|----------------------------------|-/x\--------------------|
|
|  E   E   Q         Q        E  E   +E  E Q    Q   E E
|--3---3-------------------------3-|-(3)-3------------------|
|--3---3-------------------------3-|-(3)-3------------------|
|--0---0-------------------------0-|-(0)-0------------2-----|
|--0---0---3---------2--------3--0-|-(0)-0-3----2---3-2-----|
|----------3---------3--------3----|-------3----3---3-0-----|
|--3---3-------------------------3-|-(3)-3------------------|


  Gtr I
                            ~~~                                  ~~~~~
  Q      S S S S    E E    +Q       S    e       S    e     S    H            S
|--------5-----------------------|----------------------------------------------|
|-8r-------5-8-8b10-8-8b10-(8)---|--8pb9-8pb10---8pb9-8pb10-8pb9-8pb10----------|
|--------------------------------|--------------------------------------------7-|
|--------------------------------|----------------------------------------------|
|--------------------------------|----------------------------------------------|
|--------------------------------|----------------------------------------------|
|
| Gtr II
| E  S S E   E      E Q        E   +E          S S    E     E          E Q  E
|----3-3-3---2------2-3----------|-------------3-3----3-----2----------2-3------|
|----3-3-3---3------3-3----------|-------------3-3----3-----3----------3-3------|
|-2--0-0-0---2------2-0--------2-|-(2)---------0-0----0-----2----------2-0--2---|
|-2----------------------------2-|-(2)--------------------------------------2---|
|-0----------------------------0-|-(0)--------------------------------------0---|
|--------------------------------|----------------------------------------------|


   ~~~          ~~                                         ~~~~~
   Q      e S S Q.     E        +E    E        +E    E     Q.      E
|---------------------15b17==|=(15)r-15b17====(15)r-15b17-15b17--------|
|----------------------------|-----------------------------------------|
|---------5------------------|-------------------------------------4---|
|--7--------x-7-7------------|-------------------------------------4---|
|----------------------------|-------------------------------------2---|
|----------------------------|-----------------------------------------|
|
| +E  S S E E   E  Q   E        +E    S     S   E    E     E    Q  E
|-----3-3-3-2---2--3---------|--------3-----3---3----2-----2----3------|
|-----3-3-3-3---3--3---------|--------3-----3---3----3-----3----3------|
|-(2)-0-0-0-2---2--0---2-----|--(2)---0-----0---0----2-----2----0--4---|
|-(2)------------------2-----|--(2)--------------------------------4---|
|-(0)------------------0-----|--(0)--------------------------------2---|
|----------------------------|-----------------------------------------|


                      1.,2.,3.
    Gtr I
                                        ~~
    E E E +E  Q  Q     E   E  E E E  E  Q    4x
||-------------------|-----------------------||
||o------------------|-x--10-10-9-9-10-10---o||
||--7-4-2-(2)----4/--|-x---9--9-9-9--9--9----||
||--7-4-2-(2)-2--4/--|-----------------------||
||o-5-2-0-(0)-2--2/--|----------------------o||
||------------0------|-----------------------||
|
|   Gtr II
|   E E E +E  Q  Q     H.               E E  4x
||-------------------|-----------------------||
||o------------------|----------------------o||
||------2-(2)----4/--|-----------------------||
||--7s4-2-(2)-2--4/--|-----------------------||
||o-5s2-0-(0)-2--2/--|--------------------2-o||
||------------0------|-----------------------||


  4.
                    ~~
  E    E  E E E  E  E  E        +H..        E
|----------------------------|--------------------|
|-x---10-10-9-9-10-10-10-----|-(10)--------10-----|
|-x----9--9-9-9--9--9-12b14==|=(12)r-------12b14==|
|----------------------------|--------------------|
|----------------------------|--------------------|
|----------------------------|--------------------|
|
| H..                  E        +H..        E
|----------------------------|--------------------|
|----------------------------|--------------------|
|----------------------2-----|--(2)---------2-----|
|----------------------2-----|--(2)---------2-----|
|----------------------0-----|--(0)---------0-----|
|----------------------------|--------------------|


   +H..        E        +H..        E        +H..       E
|--------------------|--------------------|---------------|
|-(10)--------10-----|-(10)--------10-----|-(10)----------|
|-(12)r-------12b14==|=(12)r-------12b14==|=(12)r-------4-|
|--------------------|--------------------|-------------4-|
|--------------------|--------------------|-------------2-|
|--------------------|--------------------|---------------|
|
|  +H..        E        +H..        E        +H..       E
|--------------------|--------------------|---------------|
|--------------------|--------------------|---------------|
|--(2)---------2-----|--(2)---------2-----|--(2)--------4-|
|--(2)---------2-----|--(2)---------2-----|--(2)--------4-|
|--(0)---------0-----|--(0)---------0-----|--(0)--------2-|
|--------------------|--------------------|---------------|


    Gtr I
                                        ~~
    E E E +E  Q  Q     E   E  E E E  E  Q    4x
||-------------------|-----------------------||
||o------------------|-x--10-10-9-9-10-10---o||
||--7-4-2-(2)----4/--|-x---9--9-9-9--9--9----||
||--7-4-2-(2)-2--4/--|-----------------------||
||o-5-2-0-(0)-2--2/--|----------------------o||
||------------0------|-----------------------||
|
|   Gtr II
|   E E E +E  Q  Q     H.               E E  4x
||-------------------|-----------------------||
||o------------------|----------------------o||
||------2-(2)----4/--|-----------------------||
||--7s4-2-(2)-2--4/--|-----------------------||
||o-5s2-0-(0)-2--2/--|--------------------2-o||
||------------0------|-----------------------||


                   H.=H
  Gtr II
  E E E +E  H      E E E E E E E E   E E E +E  H      +W
|----------------|-----------------|----------------|--------|
|----------------|-----------------|----------------|--------|
|-----2-(2)------|---------------4-|-----2-(2)------|--------|
|-7s4-2-(2)-2----|-2-2-2-2-2-2-2-4-|-7s4-2-(2)-2----|-(2)----|
|-5s2-0-(0)-2----|-2-2-2-2-2-2-2-2-|-5s2-0-(0)-2----|-(2)----|
|-----------0----|-0-0-0-0-0-0-0---|-----------0----|-(0)----|


  Gtr II
  W          q  H.
|----------|----------*|
|----------|----------*|
|-4--------|-4--------*|
|-4--------|-4--------*|
|-2--------|-2--------*|
|----------|----------*|


Duration Legend
---------------
W - whole; H - half; Q - quarter; E - 8th; S - 16th; T - 32nd; X - 64th; a - acciaccatura
+ - note tied to previous; . - note dotted; .. - note double dotted
Uncapitalized letters represent notes that are staccato (1/2 duration)
Irregular groupings are notated above the duration line
Duration letters will always appear directly above the note/fret number it represents the
duration for.  Duration letters with no fret number below them represent rests.  Multi-
bar rests are notated in the form Wxn, where n is the number of bars to rest for.  Low
melody durations appear below the staff

Tablature Legend
----------------
 h   - hammer-on
 p   - pull-off
 b   - bend
 pb  - pre-bend
 r   - bend release (if no number after the r, then release immediately)
 /\  - slide into or out of (from/to "nowhere")
 s   - legato slide
 S   - shift slide
  - natural harmonic
[n]  - artificial harmonic
n(n) - tapped harmonic
 ~   - vibrato
 tr  - trill
 T   - tap
 TP  - trem. picking
 PM  - palm muting
\n/  - tremolo bar dip; n = amount to dip
 \n  - tremolo bar down
 n/  - tremolo bar up
/n\  - tremolo bar inverted dip
 =   - hold bend; also acts as connecting device for hammers/pulls
 <>  - volume swell (louder/softer)
 x   - on rhythm slash represents muted slash
 o   - on rhythm slash represents single note slash

Misc Legend
-----------
 |  - bar
||  - double bar
||o - repeat start
o|| - repeat end
*|  - double bar (ending)
 :  - bar (freetime)
 $  - Segno
 &  - Coda
Tempo markers -  = BPM(8/16=s8/s16), where s8 = swing 8ths, s16 = swing 16ths

            
            
Suggest correction
Creating personal tab
Creating personal tab
You can edit any tab online and save it as your Personal.

You can edit, replace or remove any tab part or add personal notes – all changes will be seen only by you.

Personal tabs can be accessed anytime from any device, even offline.
Learn more »
Give kudos to tab author, rate the tab!
1 2 3 4 5
comments
print report bad tab
guest
You may want to rate the tab now too:
select rating
Wanna post a correction for this tab? Suggest correction