Oops, an error
Loading. Please wait.
We have an official Its A Long Way To The Top tab made by UG professional guitarists. Check out the tab »
×
by AC/DC
48,082 views 102 this week
7 commentsread comments
1 2 3 4 5
x 13
add to favorites
×
Save as Personal and add changes to this tab that will be seen only by you. Learn more ›
×
You can save this tab as Personal to edit and correct it or add notes. All changes will be seen only by you. Learn more »
launch autoscroll
font size
0
reset
guitar tuner
edit
Autoscroll
slow
fast
+/-
esc
set tempo
stop
Author
-------------------------------------------------------------------------------
                             It's a long way to the top - AC/DC
-------------------------------------------------------------------------------

Tabbed By : Jack Niehsner
e-mail: boon_mcnougat@hotmail.com

Tuning: Standard 

[Verse]

(The bass just hums along, don't play along to the guitar)
G|---------------------------------|
D|---------------------------------|
A|---------------------------------|
E|-6-6-6-6-6-6-6-6-6-6-6-6-6-0-2-3-|
   1 & 2 & 3 & 4 & 5 & 6 & 7 & 8 &


[Bridge]

('Getting Robbed...')
G|-------------------------|
D|-------------------------|
A|-------------------------|
E|-6-6-6-6-6-0-2-3---------|
   1 & 2 & 3 & 4 &


[Chorus]

G|------------------|
D|------------------|
A|-----2-3h-5h------|
E|-6-6---------3--2-|
   1 & 2 & 3 & 4 &

G|-----------------|
D|-----------------|
A|-----------------|
E|-6-6-6-6-6-6-6-6-|


[Solo]

During the Solo when the guitar and bagpipes alternate,
play the following under the bagpipes. Play the verse
under the guitars
G|-------------------------|
D|-------------------------|
A|-0-2-3-5-----------------|
E|---------0-2-3-5---------|
   1 2 3 4 5 6 7 8


[Outro Improv]

(this seems to be played right towards the end)
G|-------------------------|
D|-5-3-2-------------------|
A|--------5-3-2------------|
E|---------------0-2-3-----|
 

************************************

| h  Hammer-on

************************************

            
            
Suggest correction
Creating personal tab
Creating personal tab
You can edit any tab online and save it as your Personal.

You can edit, replace or remove any tab part or add personal notes – all changes will be seen only by you.

Personal tabs can be accessed anytime from any device, even offline.
Learn more »
comments
print report bad tab
7 comments total. Showing first comments.
0 reply
bass_man3 15 Apr 13, 2009 04:03 PM

Lemon pie on a pineapple plum LOLROFLHAHAHA thats a krazy kat thats a cool cat!

0 reply
bass_man3 15 Apr 29, 2009 12:24 PM

Wouldnt thisride on B?

0 reply
BoonMcNougat 97 Aug 29, 2009 07:34 PM

Yeah, sorry, I made a mistake. Instead of:

G|-------------------------|
D|-------------------------|
A|-------------------------|
E|-5-5-5-5-5-0-2-3---------|
1 & 2 & 3 & 4 &

It should be:

BRIDGE ('Getting Robbed...')
G|-------------------------|
D|-------------------------|
A|-1-1-1-1-1---------------|
E|-----------0-2-3---------|
1 & 2 & 3 & 4 &

All the 5's on the E string for the chorus, verse, and bridge should be 1's on the A string. My mistake, my bass wasn't tuned right when I originally tabbed it.

guest
You may want to rate the tab now too:
select rating
Wanna post a correction for this tab? Suggest correction