Oops, an error
Loading. Please wait.
We have an official Let There Be Rock tab made by UG professional guitarists. Check out the tab »
×
by AC/DC
13,624 views 39 this week
4 commentsread comments
1 2 3 4 5
x 5
add to favorites
×
Save as Personal and add changes to this tab that will be seen only by you. Learn more ›
×
You can save this tab as Personal to edit and correct it or add notes. All changes will be seen only by you. Learn more »
launch autoscroll
font size
0
reset
guitar tuner
backing track
0:00
0:00
edit
Autoscroll
slow
fast
+/-
esc
set tempo
stop
Author
Difficulty
Let There Be Rock Bass Tab by AcDc
Tabbed by TaoK

INTRO:
G|--------------|--------------|---------------|--------------| X4
D|--------------|--------------|---------------|--------------|
A|--------------|--------------|---------------|--------------|
E|3-0-0-0-0-0-0-|-3-0-0-0-0-0-0|--3-0-0---5-0-0|-3-0-0-0-0-0-0|


VERSE 1:
G|---------------| X32
D|*-------------*|
A|*-------------*|
E|--3--0-0--0-0-0|

G|------------|-------------|-----------|-----------| X2
D|------------|-------------|-----------|-----------|
A|-0-0--0-0-0-|0-0--0-0-----|0-0--0-0-0-|0-0--0-0---|
E|------------|---------3h4-|-----------|---------3-|

G|-------------| X8
D|-------------|
A|0-0--0-0-----|
E|---------3h4-|

G|------------|-------------|-----------|-----------|
D|------------|-------------|-----------|-----------|
A|-0-0--0-0-0-|0-0--0-0-----|0-0--0-0-0-|0-0--0-0---|
E|------------|---------3h4-|-----------|---------3-|

G|------------|-----------|-----------|-----------|
D|------------|-----------|-----------|-----------|
A|-2-2--2-2-2-|2-2--2-2-2-|2-2--2-2-2-|2-2--2-2-2-|
E|------------|-----------|-----------|-----------|

G|-----------|-----------|
D|-----------|-----------|
A|0-0--0-0-0-|0-0--0-0-0-|
E|-----------|-----------|

G|---------------|-----------------|----------|----------|----------|----------|
D|---------------|-----------------|----------|----------|----------|----------|
A|0--------------|-----------------|0~~~------|----------|----------|----------|
E|-------4-----3-|--2-----3-----4--|----------|----------|----------|----------|


INTRO:
G|--------------|--------------|---------------|--------------| X4
D|--------------|--------------|---------------|--------------|
A|--------------|--------------|---------------|--------------|
E|3-0-0-0-0-0-0-|-3-0-0-0-0-0-0|--3-0-0---5-0-0|-3-0-0-0-0-0-0|


VERSE 2:
G|---------------| X32
D|*-------------*|
A|*-------------*|
E|--3--0-0--0-0-0|

G|------------|-----------|-----------|-----------| X2
D|------------|-----------|-----------|-----------|
A|-0-0--0-0-0-|0-0--0-0-0-|0-0--0-0-0-|0-0--0-0-0-|
E|------------|-----------|-----------|-----------|

G|------------|-------------|-----------|-----------| X3
D|------------|-------------|-----------|-----------|
A|-0-0--0-0-0-|0-0--0-0-----|0-0--0-0-0-|0-0--0-0---|
E|------------|---------3h4-|-----------|---------3-|

G|------------|-----------|-----------|-----------|
D|------------|-----------|-----------|-----------|
A|-2-2--2-2-2-|2-2--2-2-2-|2-2--2-2-2-|2-2--2-2-2-|
E|------------|-----------|-----------|-----------|

G|-----------|-----------|
D|-----------|-----------|
A|0-0--0-0-0-|0-0--0-0-0-|
E|-----------|-----------|

G|---------------|-----------------|----------|----------|----------|----------|
D|---------------|-----------------|----------|----------|----------|----------|
A|0--------------|-----------------|0~~~------|----------|----------|----------|
E|-------4-----3-|--2-----3-----4--|----------|----------|----------|----------|


INTRO:
G|--------------|--------------|---------------|--------------| X4
D|--------------|--------------|---------------|--------------|
A|--------------|--------------|---------------|--------------|
E|3-0-0-0-0-0-0-|-3-0-0-0-0-0-0|--3-0-0---5-0-0|-3-0-0-0-0-0-0|


VERSE 3:
G|--------------|--------------|---------------|--------------| X4
D|--------------|--------------|---------------|--------------|
A|--------------|--------------|---------------|--------------|
E|0-0-0-0-0-0-0-|-0-0-0-0-0-0-0|--3-0-0---5-0-0|-3-0-0-0-0-0-0|

G|------------|-------------|-----------|-----------| X6
D|------------|-------------|-----------|-----------|
A|-0-0--0-0-0-|0-0--0-0-----|0-0--0-0-0-|0-0--0-0---|
E|------------|---------3h4-|-----------|---------3-|

G|------------|-----------|-----------|-----------| X9
D|------------|-----------|-----------|-----------|
A|-2-2--2-2-2-|2-2--2-2-2-|2-2--2-2-2-|2-2--2-2-2-|
E|------------|-----------|-----------|-----------|

            
            
Suggest correction
Creating personal tab
Creating personal tab
You can edit any tab online and save it as your Personal.

You can edit, replace or remove any tab part or add personal notes – all changes will be seen only by you.

Personal tabs can be accessed anytime from any device, even offline.
Learn more »
comments
print report bad tab
4 comments total. Showing first comments.
-2 reply
Dback139 306 Aug 03, 2010 12:41 PM

Eh, it's mostly there. I question the hammer-on with 3h4 when you could just play 3-4-5 on the E string. It's like I don't feel like this is a 5 star tab but it is quality. I just prefer the full tab and not something telling me how many times to play a beat. And Mark Evans didn't play open A. So 4 stars, well deserved.

+2 reply
Buzzcat 10 Aug 11, 2010 07:04 AM

Dude, you have a big stick up your butt - get a clue.

0 reply
Dback139 306 Feb 26, 2012 06:21 PM

If wanting to play the song perfectly is having a stick up my ass, then shove it in hard dude, I don't care. I said it was good, it's just not perfect. I try to be perfect with my tabs and if it's not, I expect to be corrected or called out on it. This site isn't for your creative interpretation of the song, it's to try and create a reference, which is why you can rate the tabs.

Nonetheless, if it's not perfect, it's not 5 stars. That being said, this is still very good. I've got a clue, more than you do, so I'll continue to call em as I see em. Shove the stick up my ass long and hard buddy, I don't. give. a. damn.

guest
You may want to rate the tab now too:
select rating
Wanna post a correction for this tab? Suggest correction