Oops, an error
Loading. Please wait.
We have an official Rock And Roll Aint Noise Pollution tab made by UG professional guitarists. Check out the tab »
×
by AC/DC
13,825 views 9 this week
no commentswrite comment
1 2 3 4 5
x 9
add to favorites
×
Save as Personal and add changes to this tab that will be seen only by you. Learn more ›
×
You can save this tab as Personal to edit and correct it or add notes. All changes will be seen only by you. Learn more »
launch autoscroll
font size
0
reset
guitar tuner
edit
Autoscroll
slow
fast
+/-
esc
set tempo
stop
Author
Tuning: E A D G

Enter after Brian says:
 
 Hey, there, all you middle men.
 Throw away your fancy clothes. 
 And while you're out there sitting on a fence, so get of your ass and                        
 come down here, cause Rock n' roll ain't no riddle man.
 To me it makes good, good sense.
 Good sense, that's all.


[Intro]

G|---------------------------------------------------------------|
D|---------------------------------------------------------------|
A|---2-4-5—-4-4------------------2-4-5---4-4---------------------|
E|-----------5-5-7—b3-0-----0-------------5—---b3-0--------------|

G|---------------------------------------------------------------|
D|---------------------------------------------------------------|
A|---2-4-5—-4-4------------------2-4-5---4-7---------------------|
E|-----------5--5—b3-0-------0------------5—5--b3-0--------------|


[Verse]

G|---------------------------------------------------------------|
D|---------------------------------------------------------------|
A|----------------------------0-0-0-0-0-0-0-2--------------------|
E|--------2--0-0-0-0-0-0-0-2-------------------------------------|(x3)

4th time:
G|---------------------------------------------------------------|
D|---------------------------------------------------------------|
A|----------------------------0-0-0-0-0-2-4-5--------------------|
E|-----------0-0-0-0-0-0-0-2-------------------------------------|

We're just  talkin'  about  the future. . . 
G|---------------------------------------------------------------|
D|---------------------------------------------------------------|
A|--7-5--2-7--7-5--------7-7/9-7-5-0-4-0-2-0---------------------|
E|-----------------5-3-2-----------------------------------------|


[Chorus]

G|---------------------------------------------------------------|
D|---------------------------------------------------------------|
A|---2-4-5—-4-4------------------2-4-5---4-4---------------------|
E|-----------5--5—b3-0-----0--------------5—5---b3-0-------------|

G|---------------------------------------------------------------|
D|---------------------------------------------------------------|
A|---2-4-5—-4-4------------------2-4-5---4-7---------------------|
E|-----------5-7--5—b3-0----0--------------5—5--b3-0-------------|


[Verse] (x4)

4th time:
G|---------------------------------------------------------------|
D|---------------------------------------------------------------|
A|----------------------------0-0-0-0-0--------------------------|
E|-----------0-0-0-0-0-0-0-2--------------7-5-0------------------|

We're just  talkin'  about  the future. . . 
G|---------------------------------------------------2/4---------|
D|-----------------------------------------------2h4-------------|
A|--7-5--2-7--7-5----------------------------2h4-----------------|
E|-----------------5--5-5-5-5-5--5-5-5-5-5-----------------------|


[Chorus]

G|---------------------------------------------------------------|
D|------------------------------------------4--------------------|
A|---2-4-5—-4-4------------------2-4-5---4-4---------------------|
E|-----------5-3-5—b3-0-----0-------------5—----b3-0-------------|

G|---------------------------------------------------------------|
D|---------------------------------------------------------------|
A|---2-4-5—-4-4------------------2-4-5---4-4--4-5/7-7-7-7-7-7-7--|
E|-----------5-3--5—b3-0----0-------------5—3--------------------|


[Solo]

G|---------------------------------------------------------------|
D|---------------------------------------------------------------|
A|-----------------------------5/7-------------------------------|
E|-0-0-0-0-0-0-0-3/5-5-5-5-5-5-----0-0-0-0-0-0-0-3/5-5-5-5-5-5---|

G|---------------------------------------------------------------|
D|---------------------------------------------------------------|
A|-5/7-7-7-7-7-7-7-7-7-------------------------------------------|
E|----------------------3--5-5-5-5-5-5-5-5--3--0-0-0-0-0-0-0-0---|

G|---------------------------------------------------------------|
D|---------------------------------------------------------------|
A|---------------------3h4-4/5-5/7-7--7-5--2-5--7-5--------------|
E|-3--5-5-5-5-5-5-5-5--------------------------------5-5-5-------|

G|--------------------------|
D|--------------------------|
A|------4---2---------------|
E|-2-h4---4--0--5-5-5--2-h4-|


[Chorus]

G|---------------------------------------------------------------|
D|--------------------------------------------4------------------|
A|---2-4-5—-4-4------------------2-4-5---4-4-4-4-----------------|
E|-----------5-3-5—b3-0-----0-------------5—3---5-3--------------|

G|---------------------------------------------------------------|
D|---------------------------------------------------------------|
A|---2-4-5—-4-4------------------2-4-5---4-4--4------------------|
E|-----------5-3--5—b3-0----0-------------5—5-3-0----------------|

G|---------------------------------------------------------------|
D|---------------------------------------------------------------|
A|---2-2-4-5—-4-4------------------2-2-4-5---4-4-----------------|
E|-------------5-5—b3-0-----0-----------------5—-b3--------------|

G|---------------------------------------------------------------|
D|---------------------------------------------------------------|
A|---2-2-4-5—-4-4------------------2-2-4-5-----4-----------------|
E|-------------5-5—b3-0-----0---------------5----b5-b3~--0-------|



************************************

| / slide up
| \ slide down
| h hammer-on
| p pull-off
| ~ vibrato
| + harmonic
| x Mute note
| b Bend

************************************

            
            
Suggest correction
Creating personal tab
Creating personal tab
You can edit any tab online and save it as your Personal.

You can edit, replace or remove any tab part or add personal notes – all changes will be seen only by you.

Personal tabs can be accessed anytime from any device, even offline.
Learn more »
comments
print report bad tab
guest
You may want to rate the tab now too:
select rating
Wanna post a correction for this tab? Suggest correction