Oops, an error
Loading. Please wait.
We have an official Rock And Roll Aint Noise Pollution tab made by UG professional guitarists. Check out the tab »
×
by AC/DC
13,217 views 27 this week
7 commentsread comments
1 2 3 4 5
x 12
add to favorites
×
Save as Personal and add changes to this tab that will be seen only by you. Learn more ›
×
You can save this tab as Personal to edit and correct it or add notes. All changes will be seen only by you. Learn more »
launch autoscroll
font size
0
reset
how to read this tab
guitar tuner
edit
Autoscroll
slow
fast
+/-
esc
set tempo
stop
Author
Unregistered
AC/DC
Rock N' Roll Ain't Noise Pollution
Jay Clan Clan

 Hey Rockers Its me again w/ some more kick ass AC/DC Tunes
 here ya are
                1/4                   1/4
e|---------------------------------------------|
B|-0-2-3-2-2-3-----------0-2-3-2-2-3-----------|
G|-1-2-4-2-2-4-----------1-2-4-2-2-4-----9-(9)\|
D|---------------------2-----------------9-(9)\|
A|-------0-0-0---------2-------0-0-0-----7-(7)\|
E|--------------3b-(3)-0--------------3b-0-(0)\|

               1/4                   1/4
e|---------------------------------------------|
B|---2-3-2-2-3-------------2-3-2-2-3-----------|
G|-1-2-4-2-2-4-----------1-2-4-2-2-4-----9-(9)\|
D|-2-2-2-2-2-2---------2-2-2-2-2-2-2-----9-(9)\|
A|-2-0---0-0-----------2-2-0---0-0-------7-(7)\|
E|-0------------3b-(3)-0-0------------3b-0-(0)\|

Another masterpiece good shit this is!!

            
            
Suggest correction
Creating personal tab
Creating personal tab
You can edit any tab online and save it as your Personal.

You can edit, replace or remove any tab part or add personal notes – all changes will be seen only by you.

Personal tabs can be accessed anytime from any device, even offline.
Learn more »
comments
print report bad tab
7 comments total. Showing first comments.
0 reply
Bilzzard_of_Ozz 55 Mar 08, 2004 07:00 PM

GOOD WORK

0 reply
luc rocks bitch 10 Oct 27, 2005 08:32 AM

bad shit this

0 reply
dylan08 20 Feb 22, 2009 11:35 AM

is this the whole song?

guest
Wanna post a correction for this tab? Suggest correction