Oops, an error
Loading. Please wait.
We have an official The Jack tab made by UG professional guitarists. Check out the tab »
×
by AC/DC
29,191 views 27 this week
2 commentsread comments
1 2 3 4 5
x 9
add to favorites
×
Save as Personal and add changes to this tab that will be seen only by you. Learn more ›
×
You can save this tab as Personal to edit and correct it or add notes. All changes will be seen only by you. Learn more »
launch autoscroll
font size
0
reset
guitar tuner
backing track
0:00
0:00
edit
Autoscroll
slow
fast
+/-
esc
set tempo
stop
Author
Artist: AC/DC
Song: The Jack

[Intro]
G|-----------------------------------------------------------------|
D|-----------------------------------------------------------------|
A|-----------------------------------------------------------------|  (x2)
E|-7-7-7-7-7-7-7-7-5-5-5-5-5-5-5-5-7-7-7-7-7-7-7-7-5-5-5-5-5-5-5-5-|

G|-------------------------------------------------------------------------------------------|
D|-------------------------------------------------------------------------------------------|
A|-------------------------------------------------------------------------------------------|
E|-7-7-7-7-7-7-7-7-5-5-5-5-5-5-5-5-0-0-0-0-0-0-0-5-6-7-7-7-7-7-7-7-7-7-7-7-7-7-7-7-7-7-7/1-9-|

[Verse]
G|-------------------------------------------------------------------|
D|-------------------------------------------------------------------|
A|-------------------------------------------------------------------|
E|-0-0-0-0-0-0-0-0-0-0-0-0-0-0-0-0-2-5-5-5-5-5-5-5-5-5-5-5-5-5-5-5-5-|

G|---------------------------------------------------------------------------------|
D|---------------------------------------------------------------------------------|
A|---------------------------------------------------------------------------------|
E|-0-0-0-0-0-0-0-0-0-0-0-0-0-0-0-0-5-5-5-5-5-5-5-5-5-5-5-5-5-5-5-5-5-5-5-5-5-5-5-5-|

[Chorus]
She's got the back
G|-----------------------------------------------------------------|
D|-----------------------------------------------------------------|
A|-----------------------------------------------------------------|
E|-0-0-0-0-0-0-0-0-0-0-0-0-0-0-0-0-0-0-0-0-0-0-0-0-0-0-0-0-0-0-0-0-|

G|--------------------------------------------------------------------------|
D|--------------------------------------------------------------------------|
A|--------------------------------------------------------------------------|
E|-5-55-55-55-55-55-55-55-50-00-00-00-00-00-00-00-0777777777777555555555555-|

G|---------------------------------|
D|---------------------------------|
A|---------------------------------|
E|-0-0-0-0-0-0-0-0-0-0-0-5-6-7-7\0-|

[Solo]
G|-----------------------------------------------------------------|
D|-----------------------------------------------------------------|
A|-----------------------------------------------------------------|
E|-0-0-0-0-0-0-0-0-0-0-0-0-0-0-0-0-0-0-0-0-0-0-0-0-0-0-0-0-0-0-0-0-|

G|--------------------------------------------------------------------------|
D|--------------------------------------------------------------------------|
A|--------------------------------------------------------------------------|
E|-5-55-55-55-55-55-55-55-50-00-00-00-00-00-00-00-0777777777777555555555555-|

G|------------------------------|
D|------------------------------|
A|------------------------------|
E|-0-0-0-0-0-0-0-0-0-0-0-5-6-7--|

[Verse]
G|------------------------------------------------------------------|
D|------------------------------------------------------------------|
A|------------------------------------------------------------------|
E|-0-0-0-0-0-0-0-0-0-0-0-0-0-0-0-0-5-5-5-5-5-5-5-5-5-5-5-5-5-5-5-5\-|

G|---------------------------------------------------------------------------------|
D|---------------------------------------------------------------------------------|
A|---------------------------------------------------------------------------------|
E|-0-0-0-0-0-0-0-0-0-0-0-0-0-0-0-0-5-5-5-5-5-5-5-5-5-5-5-5-5-5-5-5-5-5-5-5-5-5-5-5-|

[Chorus]
G|-------------------------------------------------------------------|
D|-------------------------------------------------------------------|
A|-------------------------------------------------------------------|
E|-0-0-0-0-0-0-0-0-0-0-0-0-0-0-0-0-0-0-0-0-0-0-0-0-2-2-2-3-3-3-4-4-4-|

G|--------------------------------------------------------------------------|
D|--------------------------------------------------------------------------|
A|--------------------------------------------------------------------------|
E|-5-55-55-55-55-55-55-55-50-00-00-00-00-00-00-00-0777777777777555555555555-|

G|------------------------------|
D|------------------------------|
A|------------------------------|
E|-0-0-0-0-0-0-0-0-0-0-0-5-6-7--|

G|-----------------------------------------------------------------|
D|-----------------------------------------------------------------|
A|-----------------------------------------------------------------|
E|-0-0-0-0-0-0-0-0-0-0-0-0-0-0-0-0-0-0-0-0-0-0-0-0-0-0-0-0-0-0-0-0-|

G|--------------------------------------------------------------------------|
D|--------------------------------------------------------------------------|
A|--------------------------------------------------------------------------|
E|-5-55-55-55-55-55-55-55-50-00-00-00-00-00-00-00-0777777777777555555555555-|

G|------------------------------|
D|------------------------------|
A|------------------------------|
E|-0-0-0-0-0-0-0-0-0-0-0-5-6-7--|

G|----------------------------------------------------------------------|
D|----------------------------------------------------------------------|
A|-----------0-1----------0-1-------------------------------------------|
E|-0-0-0-0-0-0-0--0-0-0-0-0-0-0--0-0-0-0-0-0-0-0-0-0-2-2-2-3-3-3-4-4-4--|

G|-------------------------------------|
D|-------------------------------------|
A|-------------------------------------|
E|-5-5-5-5-5-5-5-2-3-5-5-5-5-5-5-5-3-2-|

G|------------------------------------------------------|
D|------------------------------------------------------|
A|-----------01-----------------------------------------|
E|-0-00-00-00--000222333444-222222222222-555333222000-0-|


************************************

| /  Slide up
| \  Slide down

************************************

            
            
Suggest correction
Creating personal tab
Creating personal tab
You can edit any tab online and save it as your Personal.

You can edit, replace or remove any tab part or add personal notes – all changes will be seen only by you.

Personal tabs can be accessed anytime from any device, even offline.
Learn more »
comments
print report bad tab
2 comments total.
0 reply
solidskateboard 82 Apr 19, 2009 04:40 PM

I think you play the intro first bar once.
Then you go down to the SECOND bar. Skip the (x2)

FIRST BAR
intro
G|-----------------------------------------------------|
D|-----------------------------------------------------|
A|-----------------------------------------------------|
E|-7-77-77-77-7-5-55-55-55-5-7-77-77-77-7-5-55-55-55-5-|
SECOND BAR
G|---------------------------------------------------------------|
D|---------------------------------------------------------------|
A|---------------------------------------------------------------|
E|-7-77-77-77-7-5-55-55-55-5-0-00-00-00-567-77777777777777777/19-|

Unless someone can explain is to me on how to play his intro?

0 reply
Dback139 306 Aug 10, 2009 07:00 PM

This is a well-done tab. I award you 5 stars although the actual composition of the tab could have been cleaner. It's the substance that counts ;)

guest
You may want to rate the tab now too:
select rating
Wanna post a correction for this tab? Suggest correction