Oops, an error
Loading. Please wait.
We have an official Thunderstruck tab made by UG professional guitarists. Check out the tab »
×
by AC/DC
36,071 views 21 this week
1 commentread comment
1 2 3 4 5
x 9
add to favorites
×
Save as Personal and add changes to this tab that will be seen only by you. Learn more ›
×
You can save this tab as Personal to edit and correct it or add notes. All changes will be seen only by you. Learn more »
launch autoscroll
font size
0
reset
how to read this tab
guitar tuner
backing track
0:00
0:00
edit
Autoscroll
slow
fast
+/-
esc
set tempo
stop
Author
[Intro]

e|-----------|
B|-0-4p0-7p0-|
G|-----------|  
D|-----------|
A|-----------|
E|-----------|(x8)

e|----------|
B|-5p0-8p0--|
G|----------|   
D|----------|
A|----------|
E|----------|(x8)

e|----------|
B|-4p0-7p0--|
G|----------|   
D|----------|
A|----------|
E|----------|(x8)

e|----------|
B|-5p0-8p0--|
G|----------|   
D|----------|
A|----------|
E|----------|(x8)

[Main Riff]

when they recorded this song they made this part go through the whole song.

e|------------------------------------------|-------------|
B|-0-12p0-10p0-9p0-10p0-9p0-7p0-9p0-5p0-7p0-|-4p0-5p0-----|
G|------------------------------------------|-----------x8|    
D|------------------------------------------|-------------|    
A|------------------------------------------|-------------|
E|------------------------------------------|-------------|(x21)

e|----------------|
B|----------------|
G|-4--2/--2--2----|  
D|-4--2/--2--2--2-|
A|-2--0---0--0--2-|
E|-0------------0-|(x4)

listen to the track for this next bit to see when to play this chord.

e|-----|
B|-----|
G|--4--|
D|--4--|
A|--2--|
E|--0--|

e|-----------|---------------|
B|-----------|---------------|
G|--4--2-----|--2--4--2------|  
D|--4--2--2--|--2--4--2--9/--|
A|--2--0--2--|--0--2--0--9/--|
E|--0-----0--|-----0-----7/--|(x2)

[Chorus]

e|--------0--------------|
B|--------3--------------|
G|--4--2--2-----2--2-----|  
D|--4--2-----2--2--2--2--|
A|--2--0-----2--0--0--2--|
E|--0--------0--------0--|(x4)

(again, listen to the track to when to play this chord.)

e|-----|-----------|
B|-----|-----------|
G|--4--|--4--2--4--|  
D|--4--|--4--2--4--|
A|--2--|--2--0--2--|
E|--0--|--0-----0--|(x2)


[Solo]

e|------------------------7--------------------------------------------------|
B|-9-9-------------9----7---10p7---7---------------5b7r5p3p0---3-5-5b7r5p3p0-|
G|-9-9--------6-6--9-9b----------9---7-----------------------9---------------|
D|------9-----7-7----------------------9-----7-7-9---------------------------|
A|--------7-9----------------------------7-9---------------------------------|
E|---------------------------------------------------------------------------|

e|---------------------------------------------------------------------------|
B|-7p4p0-8p5p0-7p4p0---5-3----22b24-22-19--------------------22-19-----19----|
G|-------------------4------4--------------21b23-21-19-21b23--------22-------|
D|---------------------------------------------------------------------------|
A|---------------------------------------------------------------------------|
E|---------------------------------------------------------------------------|

e|--------------------------|
B|--------------------------|
G|-22-21-19----19b21-19b21/-|
D|----------21--------------|
A|--------------------------|
E|--------------------------|

[After Solo]

e|------|--------------------------|------|--------------------------|-----|
B|------|--------------------------|------|-------7------------------|-----|
G|-4--2-|---7---7-9-7-9b11r9p7-----|-4--2-|---7---7-9-7-9b11r9p7-----|-4--2|
D|-4--2-|-9---9----------------9-9-|-4--2-|-9---9----------------9-9-|-4--2|
A|-2--0-|--------------------------|-2--0-|--------------------------|-2--0|
E|-0----|--------------------------|-0----|--------------------------|-0---|

e|-----------------------------|------|-----------------------------|
B|---7---7--9--7--9b11r9p7-----|------|---7---7--9--7--9b11r9p7-----|
G|---7---7--9--7--9b11r9p7-----|-4--2-|---7---7--9--7--9b11r9p7-----|
D|-9---9-------------------9-9-|-4--2-|-9---9-------------------9-9-|
A|-----------------------------|-2--0-|-----------------------------|
E|-----------------------------|-0----|-----------------------------|

e|------------------------------------------|------------|
B|-0-12p0-10p0-9p0-10p0-9p0-7p0-9p0-5p0-7p0-|-4p0-5p0----|
G|------------------------------------------|------------|
D|------------------------------------------|------- x8 -|
A|------------------------------------------|------------|
E|------------------------------------------|------------|

e|---------------------|---------|
B|-------3-------------|---------|
G|-4--2--2-----2--2----|-4-------|
D|-4--2--0--2--2--2--2-|-4-----2-|
A|-2--0-----2--0--0--2-|-2-----2-|
E|-0--------0--------0-|-0-0-2-0-|


[Ending Solo]

e|----10-12-10-----------------------------------14b16-14-13-12------------|
B|-12-----------12-15b17-15-12-14b15r14p12----12----------------15b17-15---|
G|-----------------------------------------14------------------------------|
D|-------------------------------------------------------------------------|
A|-------------------------------------------------------------------------|
E|-------------------------------------------------------------------------|

e|-------------------------------------------------------------------------|
B|-------22-22----22----22-22----22-22----22-22----22-22-------------------|
G|-21b23----21b23-21b23-21-21b23----21b23-21-21b23-21-21b23r21p19----------|
D|----------------------------------------------------------------21-21----|
A|----------------------------------------------------------------------21-|
E|-------------------------------------------------------------------------|

e|-------------------------------------------------------------------------|
B|----------------------------------------------22-22----22----22----22b24-|
G|-19-21-21b23r21p19----21-19-19----19-21-21b23----21b23-21b23-21b23-------|
D|-------------------21----------21----------------------------------------|
A|-------------------------------------------------------------------------|
E|-------------------------------------------------------------------------|

e|-19----------19----------19----------------------------------22b24-22-19-|
B|----19-22b24----19-22b24----19-22b24r22p19-22b24-22b24r22p19-------------|
G|-------------------------------------------------------------------------|
D|-------------------------------------------------------------------------|
A|-------------------------------------------------------------------------|
E|-------------------------------------------------------------------------|

e|----------------------------------------------|
B|-22-19-------------------------------22-22----|
G|-------21b23r21p19----21----19-21b23----21b23-|
D|-------------------21----21-------------------|
A|----------------------------------------------|
E|----------------------------------------------|

with this last part begin to slow down to the ending.

e|------------------------------------------|------------|
B|-0-12p0-10p0-9p0-10p0-9p0-7p0-9p0-5p0-7p0-|-4p0-5p0----|
G|------------------------------------------|------------|
D|------------------------------------------|--------x8--|
A|------------------------------------------|------------|
E|------------------------------------------|------------|

[Rhythm Guitar]

this part goes for most of the start of the song.

e|---------------------|
B|---------------------|
G|-4-4---4---4-4---4---|
D|-4-4---4---4-4---4---|
A|-----2---2-----2---2-|
E|---------------------|

before second chorus

e|----------|-------------|
B|----------|-------------|
G|-4--2-----|-2--4--2-----|
D|-4--2--2--|-2--4--2--2--|
A|-2--0--2--|-0--2--0--2--|
E|-0-----0--|----0-----0--|

[Chorus Rhythm]

e|-------------------|
B|-------3-----------|
G|-4--2--2-----2-----|
D|-4--2--0--2--2--2--|
A|-2--0-----2--0--2--|
E|-0--------0-----0--|

e|---|
B|---|
G|-4-|
D|-4-|
A|-2-|
E|-0-|

[Solo Rhythm]

e|-------------------|
B|-------------------|
G|----4------2--2----|
D|-2--4------2--2--2-|
A|-2--2------0--0--2-|
E|-0--0--0-2-------0-|

after solo

e|------|
B|------|
G|-4--2-|
D|-4--2-|
A|-2--0-|
E|-0----|


e|------------------|----------|
B|-------3----------|----------|
G|-4--2--2-----2----|-4--------|
D|-4--2--0--2--2--2-|-4------2-|
A|-2--0-----2--0--2-|-2------2-|
E|-0--------0-----0-|-0--0-2-0-|

then you play the chorus riff through the ending solo

right at the the finishing of the song play

e|---|
B|---|
G|-4-|
D|-4-|
A|-2-|
E|-0-|

to end the song you play the main riff and just slow down



************************************

| p  Pull-off
| x  Dead note
| /  Slide up
| r  Release
| b  Bend

************************************

            
            
Suggest correction
Creating personal tab
Creating personal tab
You can edit any tab online and save it as your Personal.

You can edit, replace or remove any tab part or add personal notes – all changes will be seen only by you.

Personal tabs can be accessed anytime from any device, even offline.
Learn more »
comments
print report bad tab
1 comment total.
0 reply
cal1888 31 Apr 13, 2011 01:18 AM

Good but could use a bit more info

guest
You may want to rate the tab now too:
select rating
Wanna post a correction for this tab? Suggest correction