Oops, an error
Loading. Please wait.
We have an official Tnt tab made by UG professional guitarists. Check out the tab »
×
by AC/DC
517 views 12 this week
1 commentread comment
1 2 3 4 5
2 more votes to show rating
add to favorites
×
Save as Personal and add changes to this tab that will be seen only by you. Learn more ›
×
You can save this tab as Personal to edit and correct it or add notes. All changes will be seen only by you. Learn more »
launch autoscroll
font size
0
reset
guitar tuner
backing track
0:00
0:00
edit
Autoscroll
slow
fast
+/-
esc
set tempo
stop
Author
Difficulty
-------------------------------------------------------------------------------
                             T.N.T - AC/DC
-------------------------------------------------------------------------------
Tabbed by: A fourteen year old.
E-mail: officialkyru@gmail.com

I'm doing this by ear, so leave what you want to say below. First tab. 

Tuning: Standard


Beginning (Oi,oi, oi, oi, oi)
G|---------------------------------------------------------------------------|
D|---------------------------------------------------------------------------|
A|---------------------------------------------------------------------------|
E|0---(let note fade)--------------------------------------------------------|

You don't do anything yet. Let the vocals slide until when he says "If you know what I mean.."

  "Women to the left of me, women to the right." (Don't let the octaves ring!)
G|---------------------------------------------------------------------------|
D|---------------------------------------------------------------------------|
A|---------------------------------------------------------------------------|
E|0----12--------------------0----12-----------------------------------------|

The kickdrum helps with landing these notes in the right place. Follow it.

  "Ain't got no gun, ain't got no knife, don't you start no fight."
G|---------------------------------------------------------------------------|
D|---------------------------------------------------------------------------|
A|---------------------------------------------------------------------------|
E|---0-----12-------------------------------0----12\------3-----5(fade)------|

Attention to how he says T.N.T, because you should hit the notes at each letter.

The long set of zeros are supposed to go with that AC/DC bass vibe.
It's heard in other songs like Thunderstruck.

  "Cause I'm T.N.T; I'm dynamite." (T.N.T) "And I'll win the fight!" (T.N.T)
G|---------------------------------------------------------------------------|
D|---------------------------------------------------------------------------|
A|---------------------------------------------------------------------------|
E|-----------5-3-00000000000000000005-3-0000000000000000000000000000005-3-000|

  "I'm a power load.." (T.N.T)  "Watch me explode~"
G|---------------------------------------------------------------------------|
D|---------------------------------------------------------------------------|
A|---------------------------------------------------------------------------|
E|00000000000000000000005-3-0(SLAP)3----------5(fade)------------------------|

At this point, you should follow the guitar. Please don't pay attention to the lyrics at this point, 
just focus on the tabs that should be kept in time with the kickdrum.

  "I'm dirty, mean, and mighty unclean. I'm a wanted man."
G|---------------------------------------------------------------------------|
D|---------------------------------------------------------------------------|
A|---------------------------------------------------------------------------|
E|0--3-55-353-0--0--3-55-353-0--0--3-55-353-0--0--3-55-353-0--0--3-55-353-0--|

 "Public enemy number one, understand?"
G|---------------------------------------------------------------------------|
D|---------------------------------------------------------------------------|
A|---------------------------------------------------------------------------|
E|0--3-55-353-0--0--3-55-353-0--0--3-55-353-0--0--3-55-353-0--0--3-55-353-0--|

             Do the octave thing seen in the beginning when he begins with 
"Lock up your daughter.."

             Chorus.

Now, the end. You should be following the guitar at this point. Hope you enjoyed and you're welcome to make 
corrections below.


G|---------------------------------------------------------------------------|
D|---------------------------------------------------------------------------|
A|--7---8---9---10--11-12-13-14-15-16\-------7-------------------------------|
E|0---0---0---0----0--0--0--0--0--0----------0-------------------------------|




| /  slide up
| \  slide down
| h  hammer-on
| p  pull-off
| ~  vibrato
| +  harmonic
| x  Mute note
===============================================================================

            
            
Suggest correction
Creating personal tab
Creating personal tab
You can edit any tab online and save it as your Personal.

You can edit, replace or remove any tab part or add personal notes – all changes will be seen only by you.

Personal tabs can be accessed anytime from any device, even offline.
Learn more »
Give kudos to tab author, rate the tab!
1 2 3 4 5
There is a new version of this tab from 2 days ago which you may like more. Go check it out:
comments
print report bad tab
1 comment total.
0 reply
tdedragonslayer 10 Jun 17, 2017 05:26 AM

dead on. good job! helped me learn it quick

guest
You may want to rate the tab now too:
select rating
Wanna post a correction for this tab? Suggest correction