Oops, an error
Loading. Please wait.
We have an official Tnt tab made by UG professional guitarists. Check out the tab »
×
by AC/DC
1,099 views 18 this week
1 commentread comment
1 2 3 4 5
1 last vote to show rating
add to favorites
×
Save as Personal and add changes to this tab that will be seen only by you. Learn more ›
×
You can save this tab as Personal to edit and correct it or add notes. All changes will be seen only by you. Learn more »
launch autoscroll
font size
0
reset
how to read this tab
guitar tuner
backing track
0:00
0:00
edit
Autoscroll
slow
fast
+/-
esc
set tempo
stop
Author
Difficulty
About this tab version
Full solo and is correct. Was this info helpful? Yes No
[Solo]

e|-------3p2p0-------------------------------12------------------------------|
B|--------------3p2p0-------------------15b~----15-12----12------------------|
G|--2b~----------------2p0----------------------------14b---14-14h12-----14--|
D|-------------------------2p0------2---------------------------------14-----|
A|----------------------------------2----------------------------------------|
E|-------------------------------15/0----------------------------------------|

e|--------------12-------------12~-----12-15-12----12------------------------|
B|-----------------15-12----12-----15b----------15----15-12----12------------|
G|-----12br-14b----------14---------------------------------14----14-12----14|
D|--14------------------------------------------------------------------14---|
A|---------------------------------------------------------------------------|
E|---------------------------------------------------------------------------|

e|--------------------------17h~~~~------------------------------------------|
B|---------------------------------------------------------------------------|
G|-----12br------------------------------------------------------------------|
D|--14------14p12h14/--------------------------------------------------------|
A|---------------------------------------------------------------------------|
E|--------------------0~-----------------------------------------------------|



************************************

| h   Hammer-on
| p   Pull-off
| b   Bend
| br  Bend release
| /   Slide up
| ~   Vibrato

************************************

            
            
Suggest correction
Creating personal tab
Creating personal tab
You can edit any tab online and save it as your Personal.

You can edit, replace or remove any tab part or add personal notes – all changes will be seen only by you.

Personal tabs can be accessed anytime from any device, even offline.
Learn more »
Give kudos to tab author, rate the tab!
1 2 3 4 5
comments
print report bad tab
1 comment total.
0 reply
Maniac1075 2,322 Jul 15, 2016 04:42 AM

You couldnt add the rest of the song? or explain why your version differs from any other? come on, this is 2016, no more of this lazy half completed work.

guest
You may want to rate the tab now too:
select rating
Wanna post a correction for this tab? Suggest correction