Oops, an error
Loading. Please wait.
We have an official Tnt tab made by UG professional guitarists. Check out the tab »
×
by AC/DC
528,139 views 363 this week
44 commentsread comments
1 2 3 4 5
x 89
add to favorites
×
Save as Personal and add changes to this tab that will be seen only by you. Learn more ›
×
You can save this tab as Personal to edit and correct it or add notes. All changes will be seen only by you. Learn more »
launch autoscroll
font size
0
reset
how to read this tab
guitar tuner
backing track
0:00
0:00
edit
Autoscroll
slow
fast
+/-
esc
set tempo
stop
Author
Unregistered
AC\DC
T.N.T.
(Bon Scott, Malcom Young and Angus Young)

[Intro]
(let ring for 4 bars)
       E
E|-----0-----|
B|-----0-----|
G|-----1-----|
D|-----2-----|
A|-----2-----|
E|-----0-----|

[Rhythm Figure 1]
E|-------------------|-------------------------|------------------|
B|-----------3----2--|---------2---------------|----------3----2--|
G|---1-------0----2--|---------2------------1--|----------0----2--|
D|---2-------0----2--|---------2------------2--|----------0----2--|
A|---2------------0--|---------0------------2--|---------------0--|
E|---0-------3-------|-----3--------3b4-----0--|----------3-------|

[End Rhythm Figure 1]
E|--------------------|
B|-----2--------------|
G|-----2-----------1--|
D|-----2-----------2--|
A|-----0-----------2--|
E|--3-----3b4------0--|

[Rhythm Figure 2]
E|------------|--------------------|-----------------|----------------|
B|----3----2--|--------2-----------|---------3----2--|------2---------|
G|----0----2--|--------2--------1--|---------0----2--|------2-------1-|
D|----0----2--|--------2--------2--|---------0----2--|------2-------2-|
A|---------0--|--------0--------2--|--------------0--|------0-------2-|
E|----3-------|-----3-----3b4---0--|---------3-------|---3-----3b4--0-|

[Rhythm Figure 3]
E|----------------------------|
B|----2-----------------------|
G|----2------------1----------|
D|----2------------2----------|
A|----0------------2----------|
E|----------3------0----------|

Lyrics:

See me ride out of the sunset on your color t.v. screen,
I'm for all that I can get, if you know what I mean.
Women to the left of me, and women to the right.
Ain't got no gun, ain't got no knife,
Don't you start no fight.

'Cause I'm T.N.T.,
I'm dynamite,
T.N.T.,
and I'll win the fight.
T.N.T.,
I'm a power load,
T.N.T.,
Watch me explode.

I'm dirty, mean, and mighty unclean.
I'm a wanted man,
Public enemy number one,
Understand?
So lock up your daughter,
Lock up your wife,
Lock up your back door,
Run for your life.
The man is back in town,
So don't you mess me around.

************************************

| b  Bend

************************************

            
            
Suggest correction
Creating personal tab
Creating personal tab
You can edit any tab online and save it as your Personal.

You can edit, replace or remove any tab part or add personal notes – all changes will be seen only by you.

Personal tabs can be accessed anytime from any device, even offline.
Learn more »
comments
print report bad tab
44 comments total. Showing first comments.
0 reply
nickg_86 0 Jan 25, 2002 07:00 PM

thanks that is asome and i checked the tabing and its perfect thanks so much ac dc is my god thanks

0 reply
scottywalker 0 May 04, 2002 08:00 PM

I HAVE the tab book, bonfire, and thats pretty much it, nice work

0 reply
morbid_death 210 Jun 02, 2002 08:00 PM

sounds right :)

guest
Wanna post a correction for this tab? Suggest correction