Oops, an error
Loading. Please wait.

Whiskey On The Rocks tab

version 2
version 2

Whole song

Interactive

by AC/DC
9,880 views 12 this week
6 commentsread comments
1 2 3 4 5
x 7
add to favorites
×
Save as Personal and add changes to this tab that will be seen only by you. Learn more ›
×
You can save this tab as Personal to edit and correct it or add notes. All changes will be seen only by you. Learn more »
launch autoscroll
font size
0
reset
how to read this tab
guitar tuner
edit
Autoscroll
slow
fast
+/-
esc
set tempo
stop
Whiskey on the rocks - AC/DC

Intro/chorus

Gtr 1

e|-----7-----7---|-----------|
B|-0-7---0-7---0-|-----------|
G|---------------|-----------|
D|---------------|-----------|
A|---------------|-----------|
E|---------------|-----------|

Gtr 2

e|---------------|-3---------|
B|---------------|-3--3------|
G|---------------|-0--2------|
D|---------------|-0--0-2----|
A|---------------|------2----|
E|---------------|-3--2-0----|

play intro 4x

Bridge

e|---------------|
B|---------------|
G|---------------|
D|---------------|
A|-2-1-0---------|
E|-------3-2-1-0-|

Verse

e|--------------------------|
B|----3------------3--------|
G|----2-2----------2-2------|
D|-4--0-2--2--x-4--0-2-2----|
A|-2----0--2--x-2----0-2----|
E|---------0--x--------0----|
play that 4 times then

e|--------------------------|
B|----3------------3--------|
G|----2--2---------2-2------|
D|-4--0--2--2---4--0-2-2----|
A|-2-----0--2---2----0-2----|
E|----------0----------0----| play this once

e|--------------------------|
B|----3------------3--------|
G|----2-2----------2-2------|
D|-4--0-2--2--x-4--0-2-2----|
A|-2----0--2--x-2----0-2----|
E|---------0--x--------0----|play this once

Pre chorus

e|--------------------------------------------|
B|---------3----------------------------------|
G|-----2---2-----------2----------------------|
D|-4---2---0---2---4---2---2------------------|
A|-2---0-------2---2---0---2----2-1-0---------|
E|-------------0-----------0----------3-2-1-0-|


Chorus

e|-----7-----7---|--3---------|
B|-0-7---0-7---0-|--3--3------|
G|---------------|--0--2------|
D|---------------|--0--0-2----|
A|---------------|-------2----|
E|---------------|--3--2-0----| play 4x

Verse 2

e|--------------------------|
B|----3------------3--------|
G|----2-2----------2-2------|
D|-4--0-2--2--x-4--0-2-2----|
A|-2----0--2--x-2----0-2----| play twice
E|---------0--x--------0----|

e|--------------------------|
B|----3------------3--------|
G|----2--2---------2-2------|
D|-4--0--2--2---4--0-2-2----|
A|-2-----0--2---2----0-2----|
E|----------0----------0----| play this once

e|--------------------------|
B|----3------------3--------|
G|----2-2----------2-2------|
D|-4--0-2--2--x-4--0-2-2----|
A|-2----0--2--x-2----0-2----| play once
E|---------0--x--------0----|

Pre chorus

e|--------------------------------------------|
B|---------3----------------------------------|
G|-----2---2-----------2----------------------|
D|-4---2---0---2---4---2---2------------------|
A|-2---0-------2---2---0---2----2-1-0---------|
E|-------------0-----------0----------3-2-1-0-|

Chorus

e|-----7-----7---|--3---------|
B|-0-7---0-7---0-|--3--3------|
G|---------------|--0--2------|
D|---------------|--0--0-2----|
A|---------------|-------2----|
E|---------------|--3--2-0----| play 4x

then it starts getting into the solo which i have not 
figures out yet.

then it plays the chorus with ad lib solo.

Thats pretty much it.

            
            
Suggest correction
Creating personal tab
Creating personal tab
You can edit any tab online and save it as your Personal.

You can edit, replace or remove any tab part or add personal notes – all changes will be seen only by you.

Personal tabs can be accessed anytime from any device, even offline.
Learn more »
comments
print report bad tab
6 comments total. Showing first comments.
+1 reply
lachie_45 225 Aug 19, 2009 12:40 AM

e|-----7-----7---|
B|---7-----7-----|
G|-4-----4----4--|
D|---------------|
A|---------------|
E|---------------|

This sounds equally good! And is a bit easier that what is there....just strum slowly down.

0 reply
degot88 978 Aug 06, 2010 12:26 PM

Version by lachie_45 is better, but i like, and i pretty much sure about it, that angus plays it like
e|--------------------|
B|-------12-----12----|
G|----11-----11-------|
D|--9------9-------9--|
A|--------------------|
E|--------------------|
these open frets make me angry..

0 reply
TeSeven 10 May 10, 2012 06:37 AM

The chords are 100% right !

guest
You may want to rate the tab now too:
select rating
Wanna post a correction for this tab? Suggest correction