Oops, an error
Loading. Please wait.
We have an official You Shook Me All Night Long tab made by UG professional guitarists. Check out the tab »
×
by AC/DC
1,232,563 views 2,670 this week
99 commentsread comments
1 2 3 4 5
x 299
add to favorites
×
Save as Personal and add changes to this tab that will be seen only by you. Learn more ›
×
You can save this tab as Personal to edit and correct it or add notes. All changes will be seen only by you. Learn more »
launch autoscroll
font size
0
reset
how to read this tab
guitar tuner
backing track
0:00
0:00
edit
Autoscroll
slow
fast
+/-
esc
set tempo
stop
AC/DC,You Shook Me All Night Long
Tom Wynn,t_bone1985@hotmail.com


You Shook Me All Night Long
AC/DC
Back in Black

Tabbed by|Andrew Graham
          t_bone1985@hotmail.com


[Intro]

e|-3--5--3-3--3p2--2--|-------------3--------|
b|-3--3--3---3---3-3--|-------------3--------|
g|-0--0--0---------2--|-------------0--------|
d|-----------------0--|--0---3b--0-----------|
a|--------------------|----------------------|
e|--------------------|----------------------|

e|-5--3-3---3p2----2--|
b|-3--3---3-----3--3--|
g|-0--0------------2--|
d|-----------------0--|
a|--------------------|
e|--------------------|


[Verse]

e|--3-----------------|---0--0---3---0--3--2-|
b|--3-----------------|---1--1---3---1--3--3-|
g|--0-----------------|---0--0---0---0--0--2-|
d|--0-----------------|---2--2---0---2--0--0-|
a|--2-----------------|---3--3---2---3--2----|
e|--3-----------------|---3--3---3---3--3----|


[Chorus]

e|--3---3--------------|--2---2--------------|
b|--3---3--------------|--3---3--------------|
g|--0---0--------0----0|--2---2--------0----0|
d|--0----------0----0--|--0---0------0----0--|
a|--2----0-2-3----2----|-------0-2-3----2----|
e|--3------------------|---------------------|


[Solo]

e|---------3------------------------------------|
b|------------3---6-----------------------------|
g|--5b----------------5br--3--------------------|
d|----------------------------5----3------------|
a|-------------------------------------5---3---1|
e|----------------------------------------------|

e|----------------------------------------------|
b|------3b---3--------3--5--------3--6------6--8|
g|---------------5-----------3h5--------5h7-----|
d|-1h3------------------------------------------|
a|----------------------------------------------|
e|----------------------------------------------|

e|-----------10-------------------------------15|
b|------10b-----10br--8---12b--12b-12brp10------|
g|--7--9-----------------------------------11---|
d|----------------------------------------------|
a|----------------------------------------------|
e|----------------------------------------------|

e|---15---------------------------------13----13|
b|-------18--15---13br-----15--13--14b-----14b--|
g|----------------------14----------------------|
d|----------------------------------------------|
a|----------------------------------------------|
e|----------------------------------------------|

e|----------------------------------------|
b|----14br---11-----14br---11-------------|
g|--------------12-------------/12--12----|
d|----------------------------------------|
a|----------------------------------------|
e|----------------------------------------|

e|-19b--19b--18--15--------15-------15----|
b|--------------------18b------18b--------|
g|----------------------------------------|
d|----------------------------------------|
a|----------------------------------------|
e|----------------------------------------|

e|-------------------------15----15---17br-15---|
b|-18brp15-------------/17----17----17----------|
g|---------17--15--17---------------------------|
d|----------------------------------------------|
a|----------------------------------------------|
e|----------------------------------------------| 


************************************************
| b      bend
| br     bend release
| p      pull-off
| h      hammer-on
| /      slide up
************************************************

            
            
Suggest correction
Creating personal tab
Creating personal tab
You can edit any tab online and save it as your Personal.

You can edit, replace or remove any tab part or add personal notes – all changes will be seen only by you.

Personal tabs can be accessed anytime from any device, even offline.
Learn more »
comments
print report bad tab
99 comments total. Showing first comments.
+6 reply
rageagianstme 10 Mar 27, 2002 07:00 PM

This is great, exactly what I was looking for. thanks

+5 reply
prime_inertia 70 Mar 30, 2002 07:00 PM

fucking awesome tabs!!!!!!!!!!!!!!!!!!!!!!!!!!!!!!!!!!!!!!!!!!!!!!!!!!!!!!!!!!!!!!!!!!!!!!!!!i've been looking everywhere for tha solo and can't find jack shit for it.
nice job!!!!!!!!!!!!!!!!!!!!!!!!!!!!!!!!!!!!!

+5 reply
Justaguy717 0 Apr 03, 2002 07:00 PM

AWSOME!!!!!!!!!!!!!!!!!!!!!!!!!!!!!!!!

guest
Wanna post a correction for this tab? Suggest correction