Oops, an error
Loading. Please wait.

Over This tab

version 2
version 2

Whole song

9,864 views 1 this week
1 commentread comment
1 2 3 4 5
x 6
add to favorites
×
Save as Personal and add changes to this tab that will be seen only by you. Learn more ›
×
You can save this tab as Personal to edit and correct it or add notes. All changes will be seen only by you. Learn more »
launch autoscroll
font size
0
reset
how to read this tab
guitar tuner
edit
Autoscroll
slow
fast
+/-
esc
set tempo
stop
Author
Standard Tuning
The other tab was pretty close but I made a couple of corrections.
** This is a video of me and a friend playing this song, for those whom are having
trouble.  http://www.youtube.com/watch?v=Cg1WfCTaePI

Intro/Verse
"Lets Just Say..."
e|------------------------------------------|
B|------------------------------------------|
G|--6-9-6-6-6-6---6---9----9----------------|
D|--7-7-7-9-9-9---7---9----7----------------|
A|--0-0-0-0-0-0---9---7----5----------------|
E|------------------------------------------|


Pre-Verse
"But it's hard times..."
e|----------------------------------------|
B|----------------------------------------|
G|-----9--9-------------------------------|
D|--9--7--9-------------------------------|
A|--9--5--7-------------------------------|
E|--7-------------------------------------|


Chorus
"I need some saving..."
e|----------------------------------------|
B|----------------------------------------|
G|----7--7--7/9---------------------------|
D|-7--7--7--7/9---------------------------|
A|-7--5--4--5/7---------------------------|
E|-5--------------------------------------|

Verse
Pre Verse

Chorus
    - Play it once, then play it like this
e|------------0----------------------------|
B|------------0----------------------------|
G|--2---7-----1----------------------------|
D|--2---7--7--2----------------------------|
A|--x---5--7--2----------------------------|
E|--2------5--0----------------------------|


Bridge
"It was worth it"                           
e|-----------------------------|            
B|-----------------------------|\           
G|--2---7-----9----------------| \          
D|--2---7--7--9----------------|   X2        
A|--x---5--7--7----------------| /           
E|--2------5-------------------|/
       **PALM MUTED**

"And all the nights"
e|---------------0---------------|            
B|---------------0---------------|           
G|--2---7--------1---------------|           
D|--2---7--7-----2---------------|          
A|--x---5--7-----2---------------|            
E|--2------5-----0---------------|
**PALM MUTED** (Open)

End Chorus
e|-----------------------------|            
B|-----------------------------|\           
G|--2---7-----9----------------| \          
D|--2---7--7--9----------------|   X2        
A|--x---5--7--7----------------| /           
E|--2------5-------------------|/


End 
e|------------------|            
B|------------------|           
G|--7-7--9-9--------|           
D|--7-7--9-9--7-7~--|           
A|--5-5--7-7--7-7~--|            
E|------------5-5~--|

            
            
Suggest correction
Creating personal tab
Creating personal tab
You can edit any tab online and save it as your Personal.

You can edit, replace or remove any tab part or add personal notes – all changes will be seen only by you.

Personal tabs can be accessed anytime from any device, even offline.
Learn more »
comments
print report bad tab
1 comment total.
0 reply
eroman620 111 Feb 22, 2008 04:16 AM

ive been meaning to fix it up
but you beat me to it
good job!

guest
You may want to rate the tab now too:
select rating
Wanna post a correction for this tab? Suggest correction