Oops, an error
Loading. Please wait.

Scribbles tab

874 views 6 this week
no commentswrite comment
1 2 3 4 5
1 last vote to show rating
add to favorites
×
Save as Personal and add changes to this tab that will be seen only by you. Learn more ›
×
You can save this tab as Personal to edit and correct it or add notes. All changes will be seen only by you. Learn more »
launch autoscroll
font size
0
reset
how to read this tab
guitar tuner
edit
Autoscroll
slow
fast
+/-
esc
set tempo
stop
Acid Ghost - Scribbles
From the album "I Am Warhol" (2016).

Tabbed by Isaac Murguia, August 2016.
Originally uploaded to Ultimate-Guitar.com
Contact: www.youtube.com/user/Goadiroth

Tuning = E-flat Standard
Also, pitchshift the actual song a quarter step down.
Otherwise it'll sound out of tune if you play along.

If you see any mistakes or if you think a part is wrong, let me know!

INTRO:
e|-------------------------------------------------------|
B|-------------------------------------------------------|
G|---5---5---5---5---5-------9-----9-----9-----9-----9---|
D|-77--77--77--77--77-7--1010--1010--1010--1010--1010-10-|
A|-------------------------------------------------------|
E|-------------------------------------------------------|

e|--------------------------------------------------------|
B|--------------------------------------------------------|
G|---5---5---5---5---5-------9-----9-----10-----9-----9---|
D|-77--77--77--77--77-7--1010--1010--1010---1010--1010-10-|
A|--------------------------------------------------------|
E|--------------------------------------------------------|

CHORUS:
  Rhythm
e|------------------------------------------------|
B|------------------------------------------------|
G|---5--5-5---5--5-5------9----9--9-----9----9--9-|
D|-77-77-7--77-77-7---1010-1010-10--1010-1010-10--|
A|------------------------------------------------|
E|------------------------------------------------| x4
  Lead
e|----------8-7----------------------|----------8-7---------------------|
B|--------------8------------------7-|--------------8-----------8--8-8--|
G|-99999999-------99999999-9997h9-9--|-99999999-------99999999-9-99-9-9-|
D|-----------------------------------|----------------------------------|
A|-----------------------------------|----------------------------------|
E|-----------------------------------|----------------------------------| x2

VERSE:
  Rhythm (same as CHORUS)

  Lead
e|---------------------------------|----------------------------------|
B|---------------------------------|----------------------------------|
G|---------------------------------|----------------------------------|
D|-101010-999------101010-999------|-101010-999-----------------------|
A|------------1010------------1010-|------------10/12--12121212121212-|
E|---------------------------------|----------------------------------| x2

e|----------------------------------|----------------------------------|
B|----------------------------------|----------------------------------|
G|----------------------------------|----------------------------------|
D|-101010-999-----------------------|-101010-999-----------------------|
A|------------1010-1010101010101010-|------------10/12--12121212121212-|
E|----------------------------------|----------------------------------| x2

SOLO:
e|--------------12-121212-12121212-151515-1212-----------------------|
B|--------13-15--------------------------------15--------------------|
G|-141414-----------------------------------------14-141414-14141414-|
D|-------------------------------------------------------------------|
A|-------------------------------------------------------------------|
E|-------------------------------------------------------------------|

e|--------------12-121212------------------------------------------------|
B|--------13-15-----------1515-1313-----------------------------------13-|
G|-141414---------------------------14141414-14141414-141414-12/14-14----|
D|-----------------------------------------------------------------------|
A|-----------------------------------------------------------------------|
E|-----------------------------------------------------------------------|

AFTER SOLO:
e|-----------------------------------------|------------------------------------------|
B|-131313-12\-------8---131313-12\-----8---|-131313-12\-------------------------------|
G|------------9---9----------------9-----9-|------------9---/9-7--------------------5-|
D|-----------------------------------------|---------------------7-7777-77777-5/7-7---|
A|-----------------------------------------|------------------------------------------|
E|-----------------------------------------|------------------------------------------|

e|--------------------|
B|--------------------|
G|------9------9----9-|
D|-1010---1010---10---|
A|--------------------|
E|--------------------|

COOL PART A:
  Lead
e|-8-7----------------------|----------8-7---------------------|
B|-----8------------------8-|--------------8-----------8--8-8--|
G|-------99999999-9997h9-9--|-99999999-------99999999-9-99-9-9-|
D|--------------------------|----------------------------------|
A|--------------------------|----------------------------------|
E|--------------------------|----------------------------------|
  Rhythm
e|-------------------------------------------------------------|
B|-------------------------------------------------------------|
G|-------------------------------------------------------------|
D|-------33333333-33333333-77777777-77777755-33333333-33333333-|
A|-------33333333-33333333-77777777-77777755-33333333-33333333-|
E|-------11111111-11111111-55555555-55555533-11111111-11111111-|

COOL PART B:
  Lead 1
e|----------------------------------|----------------------------------|
B|----------------------------------|----------------------------------|
G|----------------------------------|----------------------------------|
D|-101010-999-----------------------|-101010-999-----------------------|
A|------------1010-1010101010101010-|------------10/12--12121212121212-|
E|----------------------------------|----------------------------------| x4
  Lead 2 (comes in on 3rd repetition of lead 1)
e|-8-7-------8-7---------8-7-----8-7------|
B|-----8---------8/10--------8-------8/10-|
G|----------------------------------------|
D|----------------------------------------|
A|----------------------------------------|
E|----------------------------------------|
  Rhythm
e|-------------------------------------|
B|-------------------------------------|
G|-------------------------------------|
D|-77777777-77777755-33333333-33333333-|
A|-77777777-77777755-33333333-33333333-|
E|-55555555-55555533-11111111-11111111-| x4

OUTRO: (repeat VERSE with this too)
e|-------------------------------------|
B|-------------------------------------|
G|-------------------------------------|
D|-77777777-77777755-33333333-33333333-|
A|-77777777-77777755-33333333-33333333-|
E|-55555555-55555533-11111111-11111111-| x4

It ends with the chords being played with the reverse effect

End. :D

            
            
Suggest correction
Creating personal tab
Creating personal tab
You can edit any tab online and save it as your Personal.

You can edit, replace or remove any tab part or add personal notes – all changes will be seen only by you.

Personal tabs can be accessed anytime from any device, even offline.
Learn more »
Give kudos to tab author, rate the tab!
1 2 3 4 5
comments
print report bad tab
guest
You may want to rate the tab now too:
select rating
Wanna post a correction for this tab? Suggest correction