Oops, an error
Loading. Please wait.

The Artists High tab

544 views 18 this week
no commentswrite comment
1 2 3 4 5
1 last vote to show rating
add to favorites
×
Save as Personal and add changes to this tab that will be seen only by you. Learn more ›
×
You can save this tab as Personal to edit and correct it or add notes. All changes will be seen only by you. Learn more »
launch autoscroll
font size
0
reset
how to read this tab
guitar tuner
edit
Autoscroll
slow
fast
+/-
esc
set tempo
stop
Author
Difficulty
About this tab version
Full tab of song with all looped guitar parts during the second half. It would help to have a looper pedal when playing this, or 5 guitar players. Please rate or comment. Was this info helpful? Yes No
[Intro]

   with heavy reverb & 1 beat of delay
e|-------------7--7--------|-------------7--7------|
B|-------7--9--9--9--9--7--|-------7--9--9--9------|
G|-9--9--9--9--------9--9--|-9--9--9--9------------|
D|-------------------------|-----------------------|
A|-------------------------|-----------------------|
E|-------------------------|-----------------------|



[Main Riff]
   
   play this 2x, Lyrics begin on 3rd time. On repeats 2 and 4 the end of the riff cuts out early

e|-------------------------|-----------------------------|
B|-------------------------|-----------------------------|
G|-------------------------|------------------(9)---(8)--|  () notes from guitar 2
D|-------------------------|-----------------------------|
A|-------11-11-------11-11-|-------11-11------11-----11--|
E|-0--0--------0--0--------|-0--0----------0------0------|

e|-------------------------|-----------------------------|
B|-------------------------|-----------------------------|
G|-------------------------|------------------(9)---(8)--|
D|-------------------------|-----------------------------|
A|-------11-11-------11-11-|-------11-11------11-----11--|
E|-0--0--------0--0--------|-0--0----------0------0------|

e|-------------------------|-----------------------------|
B|-------------------------|-----------------------------|
G|-------------------------|------------------(9)---(8)--|
D|-------------------------|-----------------------------|
A|-------11-11-------11-11-|-------11-11------11-----11--|
E|-9--9--------9--9--------|-9--9----------9------9------|

e|-------------------------|-----------------------------|
B|-------------------------|-----------(9)----(7)--------|
G|-------------------------|------------------------(9)--|
D|-------------------------|-----------------------------|
A|-------11-11-------11-11-|-------11-11------11-----11--|
E|-0--0--------0--0--------|-0--0----------0------0------|



[Chorus]

   heavy fuzz distortion, play 4x
e|-------------------------|-------------------------|-------------------------|-------------------------|
B|-------------------------|-------------------------|-------------------------|-------------------------|
G|-------------------------|-------------------------|-------------------------|-------------------------|
D|-------------------------|-------------------------|-------------------------|-------------------------|
A|-9--9--9--9--9--9--9--9--|-7--7--7--7--7--7--7--7--|-2--2--2--2--2--2--2--2--|-2--2--2--2--2--2--2--2--|
E|-7--7--7--7--7--7--7--7--|-5--5--5--5--5--5--5--5--|-0--0--0--0--0--0--0--0--|-0--0--0--0--0--0--0--0--|



e|-------------------------|-------------------------|-------------------------|-------------------------|
B|-------------------------|-------------------------|-------------------------|-------------------------|
G|-8--8--8--8--8--8--8--8--|-6--6--6--6--6--6--6--6--|----13-13-13-13-13-13-13-|-13-13-13-13-13-13-13-13-|
D|-9--9--9--9--9--9--9--9--|-7--7--7--7--7--7--7--7--|/14-14-14-14-14-14-14-14-|-14-14-14-14-14-14-14-14-|
A|-9--9--9--9--9--9--9--9--|-7--7--7--7--7--7--7--7--|/14-14-14-14-14-14-14-14-|-14-14-14-14-14-14-14-14-|
E|-7--7--7--7--7--7--7--7--|-5--5--5--5--5--5--5--5--|/12-12-12-12-12-12-12-12-|-12-12-12-12-12-12-12-12-|

e|-------------------------|-------------------------|-------------------------|-------------------------|
B|-------------------------|-------------------------|-------------------------|-------------------------|
G|-8--8--8--8--8--8--8--8--|-6--6--6--6--6--6--6--6--|-------------------------|-------------------------|
D|-9--9--9--9--9--9--9--9--|-7--7--7--7--7--7--7--7--|/14----------------------|-14----------------------|
A|-9--9--9--9--9--9--9--9--|-7--7--7--7--7--7--7--7--|/14----------------------|-14----------------------|
E|-7--7--7--7--7--7--7--7--|-5--5--5--5--5--5--5--5--|/12----------------------|-12----------------------|



[Verse Riff Returns]

e|-------------------------|-----------------------------|
B|-------------------------|-----------------------------|
G|-------------------------|------------------(9)---(8)--|  () notes from guitar 2
D|-------------------------|-----------------------------|
A|-------11-11-------11-11-|-------11-11------11-----11--|
E|-0--0--------0--0--------|-0--0----------0------0------|

e|-------------------------|-----------------------------|
B|-------------------------|-----------------------------|
G|-------------------------|------------------(9)---(8)--|
D|-------------------------|-----------------------------|
A|-------11-11-------11-11-|-------11-11------11-----11--|
E|-0--0--------0--0--------|-0--0----------0------0------|

e|-------------------------|-----------------------------|
B|-------------------------|-----------------------------|
G|-------------------------|------------------(9)---(8)--|
D|-------------------------|-----------------------------|
A|-------11-11-------11-11-|-------11-11------11-----11--|
E|-9--9--------9--9--------|-9--9----------9------9------|

e|-------------------------|-----------------------------|
B|-------------------------|-----------(9)----(7)--------|
G|-------------------------|------------------------(9)--|
D|-------------------------|-----------------------------|
A|-------11-11-------11-11-|-------11-11------11-----11--|
E|-0--0--------0--0--------|-0--0----------0------0------|



[Outro Loop 1]

   (2:08) - Repeat Verse parts underneath this Bridge
e|------------------------|------------------------|------------------------|------------------------|
B|------------------------|------------------------|------------------------|------------------------|
G|-------------9--9-------|-------------9--9-------|-------------9--9-------|-------------9--9-------|
D|--------9h11------11p9--|--------9h11------11p9--|--------9h11------11p9--|--------9h11------9-----|
A|-11-11------------------|-11-11------------------|-11-11------------------|-11-11--------------11--|
E|------------------------|------------------------|------------------------|------------------------|

e|------------------------|------------------------|------------------------|------------------------|
B|------------------------|------------------------|------------------------|------------------------|
G|-------------9--9-------|-------------9--9-------|-------------9--9-------|-------------9--9--9--9-|
D|--------9h11------11p9--|--------9h11------11p9--|--------9h11------11p9--|--------9h11------------|
A|-11-11------------------|-11-11------------------|-11-11------------------|-11-11------------------|
E|------------------------|------------------------|------------------------|------------------------|



[Outro Loop 2]

   (2:36 - end) - Outro Loop 1 and Verse repeat but this track is put on top of them and repeated as well
e|-------------------------|------------------------|------------------------|------------------------|
B|-------------12-12-------|------------12-12-------|------------12-12-------|------------12-12-12----|
G|-------11/13-------13\11-|------11/13-------13\11-|------11/13-------13\11-|------11/13-------------|
D|-------------------------|------------------------|------------------------|------------------------|
A|-------------------------|------------------------|------------------------|------------------------|
E|-------------------------|------------------------|------------------------|------------------------|

As the song closes out the looped layers fade out 


************************************

| x   Dead note
| h   Hammer-on
| p   Pull-off
| /   Slide up
| \   Slide down

************************************

            
            
Suggest correction
Creating personal tab
Creating personal tab
You can edit any tab online and save it as your Personal.

You can edit, replace or remove any tab part or add personal notes – all changes will be seen only by you.

Personal tabs can be accessed anytime from any device, even offline.
Learn more »
Give kudos to tab author, rate the tab!
1 2 3 4 5
comments
print report bad tab
guest
You may want to rate the tab now too:
select rating
Wanna post a correction for this tab? Suggest correction