Oops, an error
Loading. Please wait.

Playing For Time tab

version 1
version 1

Whole song

10,907 views 21 this week
1 commentread comment
1 2 3 4 5
x 4
add to favorites
×
Save as Personal and add changes to this tab that will be seen only by you. Learn more ›
×
You can save this tab as Personal to edit and correct it or add notes. All changes will be seen only by you. Learn more »
launch autoscroll
font size
0
reset
how to read this tab
guitar tuner
backing track
0:00
0:00
edit
Autoscroll
slow
fast
+/-
esc
set tempo
stop
These chords are very tough and may take a long time to master, but
if you play along with the song you can hear that they are correct.

Intro: (play this 4 times) (all bar chords)
>>There are 2 guitars playing at once but I wanted to tab out the
harder part that is repeated in the background. The lead part is really easy
and should be easy to figure out by anyone who listens to it enough.
Here it is!!!!   Good luck!!!!

>>>NOTE: The "x" represents a very light muffle sound.<<<

|-------------------------------------------------------|
|-7--7---x-7--7------5--5-----5--5--x--5--5-----3--3----|
|-7--7---x-7--7------6--6-----6--6--x--6--6-----2--2----|
|-9--9---x-9--9------5--5-----7--7--x--7--7-----4--4----|
|-10-10--x-10-10-----7--7-----5--5--x--5--5-----2--2----|
|-------------------------------------------------------|

|---------------------------------------------------------------|  R
|-3--3--x--3--3-----2--2-----3--3--x--5--5----4--4--4-----------|  E
|-0--0--x--0--0-----3--3-----2--2--x--3--3----2--2--2---|  P----|   4X
|-2--2--x--2--2-----2--2-----4--4--x--5--5----4--4--4-----------|  E
|-2--2--x--2--2-----4--4-----2--2--x--4--4----2--2--2-----------|  A
|---------------------------------------------------------------|  T

WOAHH!!!!!! That was tough!!!!  Don?t let it get you down though because it
Becomes easy once you play it a few times.
>>> Right after the above part play this chorus part?<<<

|-7---/-10-10----9---9-----5--5----7--7-7----8--8----7--7--7--|
|-8---/-12-12----10--10----7--7----8--8-8----7--7----7--7--7--|
|-7---/-11-11----9---9-----6--6----7--7-7----9--9----7--7--7--|
|-------------------------------------------------------------|
|-------------------------------------------------------------|
|-------------------------------------------------------------|

|-7---/-10-10----9---9-----5--5----7--7-7----8--7----5--5--5----------|  R
|-8---/-12-12----10--10----7--7----8--8-8----7--7----6--6--6----------|  E
|-7---/-11-11----9---9-----6--6----7--7-7----9--7----7--7--7--|  P----|   2X
|---------------------------------------------------------------------|  E
|---------------------------------------------------------------------|  A
|---------------------------------------------------------------------|  T

That wasn?t that hard. The next part is tricky however.
>>>Right after the above part, play this part?<<<

|-----------------------------------------------------|
|-7---7--x-7---7----10--10---------------------2--2---|
|-7---7--x-7---7-----7---7-----3--3-x-3--3-----3--3---|
|-9---9--x-9---9-----9---9-----4--4-x-4--4-----4--4---|
|-10--10-x-10--10----7---7-----5--5-x-5--5-----5--5---|
|-----------------------------------------------------|

|------------------------------------------------------------------|  R
|-------------------3--3-----------------------2--2----------------|  E
|-4--4--x--4--4-----4--4-----2--2--x--2--2-----2--2--------|  P----|   3X
|-4--4--x--4--4-----4--4-----2--2--x--2--2-----2--2----------------|  E
|-x--x--x--x--x-----x--x-----4--4--x--4--4-----4--4----------------|  A
|-3--3--x--3--3-----3--3-----3--3--x--3--3-----3--3----------------|  T

After playing the above part 3 times, play this part. (It is similar
to the part above except for the last chord)

|----------------------------------------------------------|
|-7---7--x-7---7-----10--10--------------------2--2--------|
|-7---7--x-7---7-----7---7-----3--3-x-3--3-----3--3--------|
|-9---9--x-9---9-----9---9-----4--4-x-4--4-----4--4--------|
|-10--10-x-10--10----7---7-----5--5-x-5--5-----5--5--------|
|----------------------------------------------------------|

|----------------------------------------------0--0--------|
|-------------------3--3-----------------------5--5--------|
|-4--4--x--4--4-----4--4-----6--6--x--6--6-----6--6--------|
|-4--4--x--4--4-----4--4-----7--7--x--7--7-----7--7--------|
|-x--x--x--x--x-----x--x-----x--x--x--x--x-----x--x--------|
|-3--3--x--3--3-----3--3-----7--7--x--7--7-----7--7--------|

 >>>I haven?t figured out the rest yet but I am working on it.<<<

-I hoped you enjoyed playing this song by Acoustic Alchemy. Don?t give
up on it because I know it is a hard song. Print it out and play it over
and over if you have to.

-Peace,
   Jae K.

            
            
Suggest correction
Creating personal tab
Creating personal tab
You can edit any tab online and save it as your Personal.

You can edit, replace or remove any tab part or add personal notes – all changes will be seen only by you.

Personal tabs can be accessed anytime from any device, even offline.
Learn more »
comments
print report bad tab
1 comment total.
0 reply
verticaltwin 10 Jul 19, 2013 08:01 PM

Mzn, I just love the nice little progression in that tune... so smooth and sweet! One part didn't sound right... I think I figured out how the progression ends in this part:

[tab

|-7---/-10-10----9---9-----5--5----7--7-7----5--5----5--5--5--|
|-8---/-12-12----10--10----7--7----8--8-8----7--7----5--5--5--|
|-7---/-11-11----9---9-----6--6----7--7-7----7--7----6--6--6--|
|-------------------------------------------------------------|
|-------------------------------------------------------------|
|-------------------------------------------------------------|

|-7---/-10-10----9---9-----5--5----7--7-7----5--5----5--5--5--|
|-8---/-12-12----10--10----7--7----8--8-8----7--5----5--5--5--|
|-7---/-11-11----9---9-----6--6----7--7-7----6--6----6--6--6--|
|----------------------------------------------------7--7--7--|
|-------------------------------------------------------------|
|-------------------------------------------------------------|


Anyway... thats the way I've been playing it and it sounds right! Let me know what you think, this is the first time I ever posted any tab.

guest
Wanna post a correction for this tab? Suggest correction