Oops, an error
Loading. Please wait.

Susceptible To Retinal Based Reprogrammability tab

version 2
version 2

Whole song

by Acrania
241 views 3 this week
2 commentsread comments
1 2 3 4 5
3 more votes to show rating
add to favorites
×
Save as Personal and add changes to this tab that will be seen only by you. Learn more ›
×
You can save this tab as Personal to edit and correct it or add notes. All changes will be seen only by you. Learn more »
launch autoscroll
font size
0
reset
how to read this tab
guitar tuner
edit
Autoscroll
slow
fast
+/-
esc
set tempo
stop
I didn't tab this out myself, I just transposed it for those who don't play a 7-String. The original tab can
be found here...
---> https://tabs.ultimate-guitar.com/a/acrania/susceptible_to_retinal_based_reprogrammability_tab.htm

Intro
C#|---------------------------------------------|
G#|---------------------------------------------|
E |---------------------------------------------|
B |-1~~-------------2-1---1-----2-1---1-------2-|
F#|-1~~--1-2-4-5------------5-----------5-5-4-2-|
B |-1~~--1-2-4-5--1-----1-----1-----1-----5-4-2-|
         x x x x  . . . . . . . . . . . . x x

C#|---------------------------------------------------------|
G#|---------------------------------------------------------|
E |---------------------------------------------------------|
B |---------------------------------------------------------|(x2)
F#|-1--2-1-2--5-4--2-1--2-4-5--1--2-1-2--5-4--2-1--1111-1-1-|
B |-1--2-1-2--5-4--2-1--2-4-5--1--2-1-2--5-4--2-1--2222-2-2-|
    x  x x x  x x  x x  x x x  x  x x x  x x  x x  xxxx x x

C#|-----------------------------|
G#|-----------------------------|
E |-----------------------------|
B |-------------1---------------|(x4)
F#|----------------5---2-1-2--1-|
B |-1----3-4--------------------|
    .    . .    .  .   . . .  .

C#|------------------------------------------------------|
G#|------------------------------------------------------|
E |------------------------------------------------------|
B |------------------------------------------------------|
F#|-1--2-1-2--5-4--2-1---2-4-5--1--2-1-2--5-4--2-1--1--1-|
B |-1--2-1-2--5-4--2-1---2-4-5--1--2-1-2--5-4--2-1--2--2-|
    x  x x x  x x  x x   x x x  x  x x x  x x  x x  x  x

C#|-------------------------------------------------------------|
G#|-------------------------------------------------------------|
E |-------------------------------------------------------------|
B |------------------1~~~------------------------------1~~~~~---|
F#|-1--2-1-2--5-4--2-1~~~-1--2-1-2--5-4--2-1-2-4-2-5-4-1~~~~~-1-|
B |-1--2-1-2--5-4--2-1~~~-1--2-1-2--5-4--2-1-2-4-2-5-4-1~~~~~-1-|
    x  x x x  x x  x      x  x x x  x x  x x x x x x x        x

C#|---------------------------------------------------------------------|
G#|---------------------------------------------------------------------|
E |---------------------------------------------------------------------|
B |---------------------------------------------------------------------|(x2)
F#|-2-5-2-3-6-3-2-5-2-6h9p6h9-5h8p5h8-2-5-2-3-6-3-2-5-2-----------------|
B |---5-2---6-3---5-2-------------------5-2---6-3---5-2-6h9p6h9-5h8p5h8-|
    . x x . x x . x x                 . x x . x x . x x

C#|--------------------------------------------------------|
G#|--------------------------------------------------------|
E |--------------------------------------------------------|
B |-2~-----3~-----2~-------------2~-----3~-----2~----------|(x4)
F#|-2~-5-2-3~-6-3-2~-5-2-6-9-5-8-2~-5-2-3~-6-3-2~-5-2--2-1-|
B |----5-2----6-3----5-2-6-9-5-8----5-2----6-3----5-2--2-1-|
       x x    x x    x x x x x x    x x    x x    x x  x x

C#|-----------------------------------------|
G#|-----------------------------------------|
E |-----------------------------------------|
B |-----------------------------------------|
F#|---2---------------2-------------4-3-2-3-|
B |-2----2-3--2-1---2----2-3--2-1---4-3-2-3-|
    . .  . .  . .   . .  . .  . .   x x x x
           
C#|-----------------------------------------|
G#|-----------------------------------------|
E |-----------------------------------------|
B |-----------------------------1~----------|(x2)
F#|---2---------------2---------1~--1-1-1-1-|
B |-2----2-3--2-1---2----2-3--2-1~--2-2-1-1-|
    . .  . .  . .   . .  . .  .     x x x x

|--------------------------------------------------------------------------------------------------------|
|--------------------------------------------------------------------------------------------------------|
|--------------------------------------------------------------------------------------------------------|
|---1---1-------------------1---1-------------------1---1------------------------------------------------|(x2)
|---------------------------------3-2-1-2---------------------------------2/3\2/3-4/5\4/5-5/6\5/6-7/8\7/8|
|-1---1---333-222-111-222-1---1---3-2-1-2-333-333-1---1---333-222-111-222--------------------------------|
  . . . . xxx xxx xxx xxx . . . . x x x x xxx xxx . . . . xxx xxx xxx xxx

C#|---------------------------------------------------------------------------------------------|
G#|---------------------------------------------------------------------------------------------|
E |---------------------------------------------------------------------------------------------|
B |---------------1---1---------------1---1---------------1---1---------------------------------|
F#|-------------------------------------------------------------2/3\2/3-4/5\4/5-5/6\5/6-7/8\7/8-|
B |-2---1-2---1-1---1---2---1-2---1-1---1---2---1-2---1-1---1-----------------------------------|
    .   x .   x .   .   .   x .   x . . . . .   x .   x . . . .

C#|---------------------------------------------|
G#|---------------------------------------------|
E |---------------------------------------------|
B |-1~~-------------2-1---1-----2-1---1-------2-|
F#|-1~~--1-2-4-5------------5-----------5-5-4-2-|
B |-1~~--1-2-4-5--1-----1-----1-----1-----5-4-2-|
         x x x x  . . . . . . . . . . . . x x

C#|---------------------------------------------------------|
G#|---------------------------------------------------------|
E |---------------------------------------------------------|
B |---------------------------------------------------------|(x4)
F#|-1--2-1-2--5-4--2-1--2-4-5--1--2-1-2--5-4--2-1--1111-1-1-|
B |-1--2-1-2--5-4--2-1--2-4-5--1--2-1-2--5-4--2-1--2222-2-2-|
    x  x x x  x x  x x  x x x  x  x x x  x x  x x  xxxx x x

Legend

Within the tab
t - Tap
h - Hammer on
p - Pull off
* - Pinch harmonic
~ - Let ring
/ - Slide up
\ - Slide down
x - Mute string
b - Bend
r - Release bend

Beneath the tab
x - Palmute
v - Vibrato
. - Tremelo

After the tab
(x2)- Play section as many times as the number shown

            
            
Suggest correction
Creating personal tab
Creating personal tab
You can edit any tab online and save it as your Personal.

You can edit, replace or remove any tab part or add personal notes – all changes will be seen only by you.

Personal tabs can be accessed anytime from any device, even offline.
Learn more »
Give kudos to tab author, rate the tab!
1 2 3 4 5
comments
print report bad tab
2 comments total.
0 reply
jagexstaff12 10 Jul 26, 2016 04:05 PM

why would you transpose this from drop A to drop B, if there isn't a single low B in the song? Just tune to drop C lol

0 reply
SanktumSodom 147 Sep 12, 2016 05:45 PM

Well I generally play in C# standard and dropping it puts it in drop B, so I'd rather tune one string instead of all six strings to drop C. I transposed it just for my ease, ha. Diggin your picture, I'm from the same state as Chelsea Grin, best thing to come from Utah, that and James Woods.

guest
You may want to rate the tab now too:
select rating
Wanna post a correction for this tab? Suggest correction