Oops, an error
Loading. Please wait.
We have an official Hello tab made by UG professional guitarists. Check out the tab »
×

Hello tab

version 1
version 1

Whole song

  • This is the fingerstyle version of the song Hello ... Show more

Interactive

Video

by Adele
745 views 36 this week
no commentswrite comment
1 2 3 4 5
3 more votes to show rating
add to favorites
×
Save as Personal and add changes to this tab that will be seen only by you. Learn more ›
×
You can save this tab as Personal to edit and correct it or add notes. All changes will be seen only by you. Learn more »
launch autoscroll
font size
0
reset
how to read this tab
guitar tuner
backing track
0:00
0:00
edit
Autoscroll
slow
fast
+/-
esc
set tempo
stop
About this tab version
This is the fingerstyle version of the song Hello by Adele. It's in standard tuning and you need to have a capo on the first fret. Was this info helpful? Yes No
e|----------------------------|
B|--0--------0----------------|
G|--0--------0----------------|
D|--2--------0----------------|
A|--------x-----------x-------|
E|--0--------3----------------|


e|----------------------------------------------------|
B|----------------------------------------------------|
G|--2-----------------0--------------------------2----|
D|--0-----------------2-------------------------------|
A|--------------------3-------------------------------|
E|--------------x-----------------------x-------------|


e|----------------------------------------------------|
B|--0-------------------------------------------------|
G|--0--------0--------0-----------------0h-2-----2L---|
D|--2--------2--------0-------------------------------|
A|--------------0-----------------------0-------------|
E|--0-----------------3-----------3-------------------|


e|----------------------------------------------------|
B|-----------------------------------------0-----0L---|
G|--2h----0-----------0-----------------0-------------|
D|--0-----------------2-------------------------------|
A|--------------------3-----------3-------------------|
E|--------------x-----------------------0-------------|


e|----------------------------------------------------|
B|--0-----0--0L-0-----0-----0-------------------------|
G|--------0--0--------------------2--2L-2h----0-------|
D|--------2-------------------------------------------|
A|--------------x-----------------------x-------------|
E|--0-----------------------3-------------------------|


e|--------------------------------------------------------------------------------|
B|-----------------------------------------------0--------------------------------|
G|--0h-------2-----------------------------------------------2h-------------------|
D|-----------0--------------------------------------------------------------------|
A|--------------------------------------------------------------------------------|
E|-----------------------------------------------------------x--------------------|


e|--------------------------------------------------------------------------------|
B|--------------------------------------------------------------------------------|
G|---0-----------------------0----------------------------------------------------|
D|---------------------------2-----------------------------------2----------------|
A|---------------------------3----------------------------------------------------|
E|---------------------------------------------------------------------------x----|


e|---------------------------------------------|
B|-------------------0-------------------------|
G|---------------------------------------------|
D|---------------------------------------------|
A|---------------------------------------------|
E|---------------------------------------------|


e|----------------------------------------------------|
B|--0-------------------------------------------------|
G|--0--------0--------0-----------------0h-2-----2L---|
D|--2--------2--------0-------------------------------|
A|--------------x-----------------------x-------------|
E|--0-----------------3-----------3-------------------|


e|----------------------------------------------------|
B|-----------------------------------------0-----0----|
G|--2h----0-----------0-----------------0-------------|
D|--0-----------------2-------------------------------|
A|--------------------3-----------3-------------------|
E|--------------x-----------------------x-------------|


e|----------------------------------------------------|
B|--------0--0L-0-----0-----0-------------------------|
G|--------0--0--------------------2--2L-2h----0-------|
D|--------2-------------------------------------------|
A|--------------x-----------------------x-------------|
E|--0-----------------------3-------------------------|


e|--------------------------------------------------------------------------------|
B|--------------------------------------------------------------------------------|
G|--0h-------------------------2--------------------------------------------------|
D|-----------------------------0--------------------------------------------------|
A|--------------------------------------------------------------------------------|
E|--------------------------------------------------------------------------------|


e|--------------------------------------------------------------------------------|
B|---------------------------------------------------------0----------------------|
G|--------------------------------------------------------------------------------|
D|--------------------------------------------------------------------------------|
A|--------------------------------------------------------------------------------|
E|--------------------------------------------------------------------------------|


e|--------------------------------------------------------------------------------|
B|--------------------------------------------------------------------------------|
G|-------------2s----------------------4s----------------------2h-----------------|
D|--------------------------------------------------------------------------------|
A|--------------------------------------------------------------------------------|
E|-------------x------------------------------------------------------------------|


e|--------------------------------------------------------------------------------|
B|--------------------------------------------------------------------------------|
G|-----0-----------------------------------------------------------------------0--|
D|-----------------------------------------------------------------------------2--|
A|-----------------------------------------------------------------------------3--|
E|--------------------------------------------------------------------------------|


e|--------------------------------------------------------------------------------|
B|--------------------------------------------------------------------------------|
G|--------------------------------------------------------------------------------|
D|--------------------------------------------------------------------------------|
A|--------------------------------------------------------------------------------|
E|--------------------------------------------------------------------------------|


e|--------------------------------------------------------------------------------|
B|--------------------------------------------------------------------------------|
G|--------------------------------------------------------------------------------|
D|-------------------------2------------------------------------------------------|
A|--------------------------------------------------------------------------------|
E|-------------------------------------------------------------x------------------|


e|--------------------------------------------------------------------------------|
B|--------------------------------------------------------------------------------|
G|--------------------------------------------------------------------------------|
D|--------------------------------------------------------------------------------|
A|--------------------------------------------------------------------------------|
E|--------------------------------------------------------------------------------|


e|-----------------------------------------------|
B|-----------------------------------------------|
G|---------2-------------------------------------|
D|-----------------------------------------------|
A|-----------------------------------------------|
E|-----------------------------------------------|


e|----------------------------------------------------|
B|--0-------------------------------------------------|
G|--0--------0--------0-----------------0h-2-----2----|
D|--2--------2--------0-------------------------------|
A|--------------x-----------------------x-------------|
E|--0-----------------3-----------3-------------------|


e|----------------------------------------------------|
B|-----------------------------------------0-----0----|
G|--2g----0-----------0-----------------0-------------|
D|--0-----------------2-------------------------------|
A|--------------------3-----------3-------------------|
E|--------------x-----------------------x-------------|


e|----------------------------------------------------|
B|--------0--0L-0-----0-----0-------------------------|
G|--------0--0--------------------2--2L-2h----0-------|
D|--------2-------------------------------------------|
A|--------------x-----------------------x-------------|
E|--0-----------------------3-------------------------|


e|--------------------------------------------------------------------------------|
B|-----------------------------------------------0--------------------------------|
G|--0h-------2-----------------------------------------------2h-------------------|
D|-----------0--------------------------------------------------------------------|
A|--------------------------------------------------------------------------------|
E|-----------------------------------------------------------x--------------------|


e|--------------------------------------------------------------------------------|
B|--------------------------------------------------------------------------------|
G|---0-----------------------0-----------------------------------------------0----|
D|---------------------------2-----------------------0h----------2----------------|
A|---------------------------3----------------------------------------------------|
E|---------------------------------------------------------------------------x----|


e|---------------------------------------------|
B|---------------------------------------------|
G|---------------------------------------------|
D|-------2h----------0-------------------------|
A|-------------------------------3-------------|
E|---------------------------------------------|


e|----------------------------------------------------|
B|--0-------------------------------------------------|
G|--0--------0--------0-----------------0h-2-----2----|
D|--2--------2--------0-------------------------------|
A|--------------x-----------------------x-------------|
E|--0-----------------3-----------3-------------------|


e|--------------------0-------------------------------|
B|--3--------3--------1--------------------0-----0L---|
G|--2-----------------0-----------------0-------------|
D|--0-----------------2-------------------------------|
A|--------------------3-----------3-------------------|
E|--------------x-----------------------x-------------|


e|----------------------------------------------------|
B|--0-----0--0L-0-----0-----0-------------------------|
G|--------0--0--------------------2--2--2g----0-------|
D|--------2-------------------------------------------|
A|--------------x-----------------------x-------------|
E|--0-----------------------3-------------------------|


e|--------------------------------------------------------------------------------|
B|-----------------------------------------------0--------------------------------|
G|--0h-------2-----------------------------------------------2h-------------------|
D|-----------0--------------------------------------------------------------------|
A|--------------------------------------------------------------------------------|
E|-----------------------------------------------------------x--------------------|


e|--------------------------------------------------------------------------------|
B|--------------------------------------------------------------------------------|
G|---0-----------------------0-----------------------------------------------0----|
D|---------------------------2-----------------------0h----------2----------------|
A|---------------------------3----------------------------------------------------|
E|---------------------------------------------------------------------------x----|


e|---------------------------------------------|
B|-------------------0-------------------------|
G|---------------------------------------------|
D|---------------------------------------------|
A|---------------------------------------------|
E|---------------------------------------------|


e|----------------------------------------------------|
B|--0-----------------------------------0h-3----------|
G|--0--------0--------0-------------------------------|
D|--2--------2--------0-------------------------------|
A|--------------x-----------------------x-------------|
E|--0-----------------3-----------3-------------------|

    ^        v        ^
e|----------------------------------------------------|
B|--3--------3--------1h-------0----------------------|
G|--4--------4--------0-----------2h-0L-0-----0h-2----|
D|--4--------4--------2-------------------------------|
A|--2--------2--------3-------------------------------|
E|--------------x-----------------------x-------------|

                      ^
e|----------------------------|----------------|
B|--0-----------------1L------|--1L-1L-1L-1----|
G|--0--------2h----0--0L------|--0L-0L-0L-0----|
D|--2--------0--------2L------|--2L-2L-2L-2----|
A|--------x-----------3L------|--3L-3L-3L-3----|
E|--0-------------------------|----------------|

    ^
e|--0-----0-----3-----3s----5-----------5-------------|
B|--0-------------------------------------------------|
G|--0-----------------------0--------------------0----|
D|--2-------------------------------------------------|
A|--2-----------------------3-----3-----------3-------|
E|--0-----------x-----------------------x-------------|

                      ^        ^  ^  v  ^
e|--5--------5L-5-----3--------3--3--3--3-----0-------|
B|--------------------3--------3--3--3--3-------------|
G|--0-----------------2--------2--2--2--2-------------|
D|--------------------0--------0--0--0--0-------------|
A|--------------x-------------------------------------|
E|--3-----3-----------------------------x-------------|

    ^
e|--0-----------0-----------3-----------3s----------5-----------------------5h-6h-|
B|--0-----------------------------------------------------------------------------|
G|--0-----------------------------------------------0-----------------------------|
D|--2-----------------------------------------------------------------------------|
A|--2-----------------------------------------------3-----------3-----------------|
E|--0-----------------------x-----------------------------------------------x-----|

                                           ^        ^  ^
e|5-------------------|--5--------5L-5-----3--------3--3-----10h---5h-3----|
B|--------------------|--------------------3--------3--3-------------------|
G|------0-------------|--0-----------------2--------2--2-------------------|
D|--------------------|--------------------0--------0--0-------------------|
A|--------------------|--------------x-------------------------------------|
E|--------------------|--3-----3-------------------------------------------|

                                              ^  v
e|--------7-----------3-----------------------3--3----|
B|--------------------1-----------3L----3-----1--1----|
G|--0-----------------0-----------------------0--0----|
D|--2-----------2-----2-----------------------2--2----|
A|--2-----------2-----3-------------------------------|
E|--0-----------0-----------------------x-------------|

    ^                 ^        v  ^
e|--3-----2-----0-----------------------10h---5h-3----|
B|--0-----------------3--------3--3-------------------|
G|--0-----------------2--------2--2-------------------|
D|--0-----------------0--------0--0-------------------|
A|--2-------------------------------------------------|
E|--3-----------x-------------------------------------|


e|-----7-----3----------------|
B|-----------1-----3L-3-------|
G|--0--------0----------------|
D|--2-----2--2----------------|
A|--2-----2--3----------------|
E|--0-----0-----------x-------|

    ^                 ^        v  ^     ^
e|--3-----2-----0-------------------------------------|
B|--0-----------------3--------3--3-----3-------------|
G|--0-----------------2--------2--2-----2-----2g------|
D|--0-----------------0--------0--0-----0-------------|
A|--2-------------------------------------------------|
E|--3-----------x-----------------------x-------------|

    ^
e|--0-----------0-----------3-----------3s----------5-----------------------5h-6h-|
B|--0-----------------------------------------------------------------------------|
G|--0-----------------------------------------------0-----------------------------|
D|--2-----------------------------------------------------------------------------|
A|--2-----------------------------------------------3-----------3-----------------|
E|--0-----------------------x-----------------------------------------------x-----|

                                           ^        ^  ^  v  ^
e|5-------------------|--5--------5L-5-----3--------3--3--3--3-----0-------|
B|--------------------|--------------------3--------3--3--3--3-------------|
G|------0-------------|--0-----------------2--------2--2--2--2-------------|
D|--------------------|--------------------0--------0--0--0--0-------------|
A|--------------------|--------------x-------------------------------------|
E|--------------------|--3-----3-----------------------------x-------------|

    ^
e|--0-----------0-----------3-----------3s----------5-----------------------5h-6h-|
B|--0-----------------------------------------------------------------------------|
G|--0-----------------------------------------------0-----------------------------|
D|--2-----------------------------------------------------------------------------|
A|--2-----------------------------------------------3-----------3-----------------|
E|--0-----------------------x-----------------------------------------------x-----|

                                           ^        ^  ^
e|5-------------------|--5--------5L-5-----3--------3--3-------------------|
B|--------------------|--------------------3--------3--3-------------------|
G|------0-------------|--0-----------------2--------2--2-----7--------12---|
D|--------------------|--------------------0--------0--0-----------7-------|
A|--------------------|--------------x-------------------------------------|
E|--------------------|--3-----3-------------------------------------------|


e|-----------3----------------|
B|-----12----1-----3L-3-------|
G|-----------0----------------|
D|-----------2----------------|
A|--------x--3----------------|
E|--0-----------------x-------|

    ^                 ^        v  ^
e|--3-----2-----0-------------------------------------|
B|--0-----------------3--------3--3-------------------|
G|--0-----------------2--------2--2-----7--------12---|
D|--0-----------------0--------0--0-----------7-------|
A|--2-------------------------------------------------|
E|--3-----------x-------------------------------------|

                                              ^  v
e|--------------------3-----------------------3--3----|
B|--------12----------1-----------3L----3-----1--1----|
G|--------------------0-----------------------0--0----|
D|--------------------2-----------------------2--2----|
A|--------------x-----3-------------------------------|
E|--0-----------------------------------x-------------|

    ^                 ^
e|--3-----2-----0-----------------0-------------------|
B|--0-----------------3-----------------3h-0----------|
G|--0-----------------2-----------------------2h-0----|
D|--0-----------------0-------------------------------|
A|--2-------------------------------------------------|
E|--3-----------x-----------------------x-------------|


e|----------------------------|
B|----------------------------|
G|--0--------0----------------|
D|--2--------0----------------|
A|--2-----x-----------x-------|
E|--0--------3----------------|


e|----------------------------------------------------|
B|----------------------------------------------------|
G|--2-----------------0--------------------------2----|
D|--0-----------------2-------------------------------|
A|--------------------3-------------------------------|
E|--------------x-----------------------x-------------|


e|----------------------------------------------------|
B|--0-------------------------------------------------|
G|--0--------0--------0-----------------0h-2-----2L---|
D|--2--------2--------0-------------------------------|
A|--------------x-----------------------x-------------|
E|--0-----------------3-----------3-------------------|


e|----------------------------------------------------|
B|-----------------------------------------0-----0L---|
G|--2h----0-----------0-----------------0-------------|
D|--0-----------------2-------------------------------|
A|--------------------3-----------3-------------------|
E|--------------x-----------------------x-------------|


e|----------------------------------------------------|
B|--0-----0--0L-0-----0-----0-------------------------|
G|--------0--0--------------------2--2L-2h----0-------|
D|--------2-------------------------------------------|
A|--------------x-----------------------x-------------|
E|--0-----------------------3-------------------------|


e|--------------------------------------------------------------------------------|
B|--------------------------------------------------------------------------------|
G|--0h-------------------------2--------------------------------------------------|
D|-----------------------------0--------------------------------------------------|
A|--------------------------------------------------------------------------------|
E|--------------------------------------------------------------------------------|


e|--------------------------------------------------------------------------------|
B|---------------------------------------------------------0----------------------|
G|--------------------------------------------------------------------------------|
D|--------------------------------------------------------------------------------|
A|--------------------------------------------------------------------------------|
E|--------------------------------------------------------------------------------|


e|--------------------------------------------------------------------------------|
B|--------------------------------------------------------------------------------|
G|-------------2s----------------------4s----------------------2h-----------------|
D|--------------------------------------------------------------------------------|
A|--------------------------------------------------------------------------------|
E|-------------x------------------------------------------------------------------|


e|--------------------------------------------------------------------------------|
B|--------------------------------------------------------------------------------|
G|-----0-----------------------------------------------------------------------0--|
D|-----------------------------------------------------------------------------2--|
A|-----------------------------------------------------------------------------3--|
E|--------------------------------------------------------------------------------|


e|--------------------------------------------------------------------------------|
B|--------------------------------------------------------------------------------|
G|--------------------------------------------------------------------------------|
D|---------------------------------------------------------------------0h---------|
A|--------------------------------------------------------------------------------|
E|--------------------------------------------------------------------------------|


e|--------------------------------------------------------------------------------|
B|--------------------------------------------------------------------------------|
G|-------------------------------------------------------------0------------------|
D|-------------------------2------------------------------------------------------|
A|--------------------------------------------------------------------------------|
E|-------------------------------------------------------------x------------------|


e|--------------------------------------------------------------------------------|
B|--------------------------------------------------------------------------------|
G|--------------------------------------------------------------------------------|
D|-----------------2h----------------------------------0--------------------------|
A|--------------------------------------------------------------------------------|
E|--------------------------------------------------------------------------------|


e|-----------------------------------------------|
B|-----------------------------------------------|
G|-----------------------------------------------|
D|-----------------------------------------------|
A|---------3-------------------------------------|
E|-----------------------------------------------|


e|----------------------------------------------------|
B|--0-------------------------------------------------|
G|--0--------0--------0-----------------0h-2-----2L---|
D|--2--------2--------0-------------------------------|
A|--------------x-----------------------x-------------|
E|--0-----------------3-----------3-------------------|


e|----------------------------------------------------|
B|-----------------------------------------0-----0L---|
G|--2h----0-----------0-----------------0-------------|
D|--0-----------------2-------------------------------|
A|--------------------3-----------3-------------------|
E|--------------x-----------------------x-------------|


e|----------------------------------------------------|
B|--0-----0--0L-0-----3-----3-----1h-0--------1-------|
G|--------0--0--------------0-------------------------|
D|--------2-----------------0-------------------------|
A|--------------x-----------------------x-------------|
E|--0-----------------------3-------------------------|


e|----------------------------------------------------|
B|--0h-1h-0-----0-----------------------------0-------|
G|-----------2-----2h-0-----0-----------0-------------|
D|--0--------------------0--2-----0h-2----------------|
A|--------------------------3-------------------------|
E|--------------x-----------------------x-------------|


e|----------------------------------------------------|
B|--0-----------------------------------0--3----------|
G|--0--------0--------0-------------------------------|
D|--2--------2--------0-------------------------------|
A|--------------x-----------------------x-------------|
E|--0-----------------3-----------3-------------------|

    ^        v        ^                 ^
e|----------------------------------------------------|
B|--3--------3--------1-----------1-----1-------------|
G|--4--------4--------0-----------0-----0-----0h-2----|
D|--4--------4--------2-----------2-----2-------------|
A|--2--------2--------3-----------3-----3L----3L-3----|
E|--------------x-------------------------------------|


e|--------------------------------------------------------------------------------|
B|--0-----------------------------------------------------1--------0--------------|
G|--0L----------------------------------------------------0L-------0--------------|
D|--2L----------------------------------------------------2L-------2--------------|
A|--------------------------------------------------------------------------x-----|
E|--0L----------------------------------------------------0L-------0--------------|


e|---------------------------------------------------------------------------------|
B|---------------------------------------------------------------------------------|
G|------------------------------2-----------------------------------2s----------4--|s
D|------------------------------0--------------------------------------------------|
A|---------------------------------------------------------------------------------|
E|------------------------------------------------------------------x--------------|

                                                            ^
e|--------------------------------------------------------------------------------|
B|----------------------------------------------------------1L--------------------|
G|----------2h----------0-----------------------------------0L--------------------|
D|----------------------------------------------------------2L--------------------|
A|----------------------------------------------------------3L--------------------|
E|--------------------------------------------------------------------------------|


e|----------------------------------------------------|
B|----------------------------------------------------|
G|----------------------------------------------------|
D|----------------------------------------------------|
A|----------------------------------------------------|
E|----------------------------------------------------|


e|-----------------------0----|
B|--1L----1L----1L----1-------|
G|--0L----0L----0L----0-------|
D|--2L----2L----2L----2-------|
A|--3L----3L----3L----3-------|
E|----------------------------|

    ^
e|--0-----------0-----------3-----------3s----------5-----------------------5h-6h-|
B|--0-----------------------------------------------------------------------------|
G|--0-----------------------------------------------0-----------------------------|
D|--2-----------------------------------------------------------------------------|
A|--2-----------------------------------------------3-----------3-----------------|
E|--0-----------------------x-----------------------------------------------x-----|

                                           ^        ^  ^  v  ^
e|5-------------------|--5--------5L-5-----3--------3--3--3--3-----0-------|
B|--------------------|--------------------3--------3--3--3--3-------------|
G|------0-------------|--0-----------------2--------2--2--2--2-------------|
D|--------------------|--------------------0--------0--0--0--0-------------|
A|--------------------|--------------x-------------------------------------|
E|--------------------|--3-----3-----------------------------x-------------|

    ^
e|--0-----------0-----------3-----------3s----------5-----------------------5h-6h-|
B|--0-----------------------------------------------------------------------------|
G|--0-----------------------------------------------0-----------------------------|
D|--2-----------------------------------------------------------------------------|
A|--2-----------------------------------------------3-----------3-----------------|
E|--0-----------------------x-----------------------------------------------x-----|

                                           ^        ^  ^
e|5-------------------|--5--------5L-5-----3--------3--3-----10h---5h-3----|
B|--------------------|--------------------3--------3--3-------------------|
G|------0-------------|--0-----------------2--------2--2-------------------|
D|--------------------|--------------------0--------0--0-------------------|
A|--------------------|--------------x-------------------------------------|
E|--------------------|--3-----3-------------------------------------------|

                                              ^  v
e|--------7-----------3-----------------------3--3----|
B|--------------------1-----------3L----3-----1--1----|
G|--0-----------------0-----------------------0--0----|
D|--2-----------2-----2-----------------------2--2----|
A|--2-----------2-----3-------------------------------|
E|--0-----------0-----------------------x-------------|

    ^                 ^        v  ^
e|--3-----2-----0-----------------------10h---5h-3----|
B|--0-----------------3--------3--3-------------------|
G|--0-----------------2--------2--2-------------------|
D|--0-----------------0--------0--0-------------------|
A|--2-------------------------------------------------|
E|--3-----------x-------------------------------------|


e|-----7-----3----------------|
B|-----------1-----3L-3-------|
G|--0--------0----------------|
D|--2-----2--2----------------|
A|--2-----2--3----------------|
E|--0-----0-----------x-------|

    ^                 ^        v  ^     ^
e|--3-----2-----0-------------------------------------|
B|--0-----------------3--------3--3-----3-------------|
G|--0-----------------2--------2--2-----2-----2g------|
D|--0-----------------0--------0--0-----0-------------|
A|--2-------------------------------------------------|
E|--3-----------x-----------------------x-------------|

    ^
e|--0-----------0-----------3-----------3s----------5-----------------------5h-6h-|
B|--0-----------------------------------------------------------------------------|
G|--0-----------------------------------------------0-----------------------------|
D|--2-----------------------------------------------------------------------------|
A|--2-----------------------------------------------3-----------3-----------------|
E|--0-----------------------x-----------------------------------------------x-----|

                                           ^        ^  ^  v  ^
e|5-------------------|--5--------5L-5-----3--------3--3--3--3-----0-------|
B|--------------------|--------------------3--------3--3--3--3-------------|
G|------0-------------|--0-----------------2--------2--2--2--2-------------|
D|--------------------|--------------------0--------0--0--0--0-------------|
A|--------------------|--------------x-------------------------------------|
E|--------------------|--3-----3-----------------------------x-------------|

    ^
e|--0-----------0-----------3-----------3s----------5-----------------------5h-6h-|
B|--0-----------------------------------------------------------------------------|
G|--0-----------------------------------------------0-----------------------------|
D|--2-----------------------------------------------------------------------------|
A|--2-----------------------------------------------3-----------3-----------------|
E|--0-----------------------x-----------------------------------------------x-----|

                                           ^        ^  ^
e|5-------------------|--5--------5L-5-----3--------3--3-------------------|
B|--------------------|--------------------3--------3--3-------------------|
G|------0-------------|--0-----------------2--------2--2-----7--------12---|
D|--------------------|--------------------0--------0--0-----------7-------|
A|--------------------|--------------x-------------------------------------|
E|--------------------|--3-----3-------------------------------------------|


e|-----------3----------------|
B|-----12----1-----3L-3-------|
G|-----------0----------------|
D|-----------2----------------|
A|--------x--3----------------|
E|--0-----------------x-------|

    ^                 ^        v  ^
e|--3-----2-----0-------------------------------------|
B|--0-----------------3--------3--3-------------------|
G|--0-----------------2--------2--2-----7--------12---|
D|--0-----------------0--------0--0-----------7-------|
A|--2-------------------------------------------------|
E|--3-----------x-------------------------------------|

                                              ^  v
e|--------------------3-----------------------3--3----|
B|--------12----------1-----------3L----3-----1--1----|
G|--------------------0-----------------------0--0----|
D|--------------------2-----------------------2--2----|
A|--------------x-----3-------------------------------|
E|--0-----------------------------------x-------------|

    ^                 ^
e|--3-----2-----0-----------------0-------------------|
B|--0-----------------3-----------------3h-0----------|
G|--0-----------------2-----------------------2h-0----|
D|--0-----------------0-------------------------------|
A|--2-------------------------------------------------|
E|--3-----------x-----------------------x-------------|


e|----------------------------|----------------------------||
B|----------------------------|----------------------------||
G|--0--------0----------------|--2--------0L----------0----||
D|--2--------0----------------|--0--------2L----------2----||
A|--2-----x-----------x-------|-----------3L----------3----||
E|--0--------3----------------|--------x-------------------||

            
            
Suggest correction
Creating personal tab
Creating personal tab
You can edit any tab online and save it as your Personal.

You can edit, replace or remove any tab part or add personal notes – all changes will be seen only by you.

Personal tabs can be accessed anytime from any device, even offline.
Learn more »
Give kudos to tab author, rate the tab!
1 2 3 4 5
comments
print report bad tab
guest
You may want to rate the tab now too:
select rating
Wanna post a correction for this tab? Suggest correction