Oops, an error
Loading. Please wait.
We have an official Million Years Ago tab made by UG professional guitarists. Check out the tab »
×

Million Years Ago chords

version 2
version 2

Whole song

  • This is a better way to read and to learn from you... Show more
  • This has all thee correct variations of the chords.
  • The other ones are not on the original key and I felt like it was needed.

Interactive

by Adele
190,123 views 933 this week
1 commentread comment
1 2 3 4 5
x 65
add to favorites
×
Save as Personal and add changes to this tab that will be seen only by you. Learn more ›
×
You can save this tab as Personal to edit and correct it or add notes. All changes will be seen only by you. Learn more »
launch autoscroll
font size
0
reset
transpose
0
reset
simplify chords
display chords
guitar tuner
edit
Autoscroll
slow
fast
+/-
esc
set tempo
stop
Strumming
There is no strumming pattern for this song yet. and get +5 IQ
Million Years Ago by Adele from her “25” album
For any questions mail me to fffoma@gmail.com


Key: C-Sharp Minor
Time: 4/4


CAPO: 2


To play without capo hit transpose button (+2).


Em7..............[0x000x]
A7...............[x0202x]
DMaj7............[xx0222]
Gadd9............[3x020x]
F#7..............[2x232x]
Bm7..............[x2423x]
B7...............[x2424x]




     Bm   A   Em/G  F#m7      Bm
|------------------------|------------------------|
|----3----2--------------|----3~~~~~~~~~~~--------|
|--------------4----2----|----4~~~~~~~~~~~--------|
|----4----2----2~~~~~----|----4~~~~~~~~~~~--------|
|----2----0--------------|----2~~~~~~~~~~~--------|
|--------------3----2----|------------------------|


        Em7                A7
I only wanted to have fun
              DMaj7               Gadd9
Learning to fly, learning to run
          Em7                  F#7
I let my heart decide the way
            Bm7
When I was young


      B7     Em7                    A7
Deep down I must have always known
                 DMaj7       Gadd9
That is would be inevitable
              Em7                   F#7
To earn my stripes I'd have to pay
            (Bm7)
And bear my soul


    Bm7                      A       Gadd9          x3
|-----------------------|------------------------|
|--------3-----3--------|--------2-------0-------|
|*-----2-----2-----2----|------2---2---2---2----*|
|*----------------------|-----------------------*|
|----2-----2-----2------|----0-------------------|
|-----------------------|------------3-----------|

    F#7
|-----------------------|------------------------|
|-------(2)---(2)-(2)---|-------(2)---(2)-(2)----|
|--------3-----3---3----|--------3-----3---3-----|
|------2-----2----------|------2-----2-----------|
|-----------------------|------------------------|
|----2-----2-----2------|----2-----2-----2-------|


            Em7              A7
I know I'm not the only one
        DMaj7                        Gadd9
Who regrets the things they've done
                  Em7               F#7
Sometimes I just feel it's only me
                        Bm7
Who can't stand the reflection that they see


   B7           Em7                A7
I wish I could live a little more
                 DMaj7                  Gadd9
Look up to the sky, not just the floor
                Em7                 F#7
I feel like my life is flashing by
               Bm7
And all I can do is watch and cry


   B7      Em7              A7
I miss the air, I miss my friends
           DMaj7                  Gadd9
I miss my mother, I miss it when
            Em7                F#7
Life was a party to be thrown
               *intro sequence*
But that was a million years ago


     Bm   A   Em/G  F#m7      Bm
|------------------------|------------------------|
|----3----2--------------|----3~~~~~~~~~~~--------|
|--------------4----2----|----4~~~~~~~~~~~--------|
|----4----2----2~~~~~----|----4~~~~~~~~~~~--------|
|----2----0--------------|----2~~~~~~~~~~~--------|
|--------------3----2----|------------------------|



              Em7                      A7
When I walk around all of the streets
             DMaj7                 Gadd9
Where I grew up and found my feet
            Em7                F#7
They can't look me in the eye
                                Bm7
It's like they're scared of me


    B7     Em7                   A7
I try to think of things to say
        DMaj7            Gadd9
Like a joke or a memory
                Em7              F#7
But they don't recognize me now
                (Bm7)
In the light of day


    Bm7                      A       Gadd9          x3
|------2-----2----------|------5-------3---------|
|--------3-----3---3----|--------5-------3-------|
|*-------2-----2---2----|--------6-------4------*|
|*----------------------|----------7-------5----*|
|----2-----2-----2------|----0-------------------|
|-----------------------|------------3-----------|


    F#7
|------2-----2----------|------2-----2-----------|
|-------(2)---(2)-(2)---|-------(2)---(2)-(2)----|
|--------3-----3---3----|--------3-----3---3-----|
|------2-----2----------|------2-----2-----------|
|-----------------------|------------------------|
|----2-----2-----2------|----2-----2-----2-------|


            Em7              A7
I know I'm not the only one
        DMaj7                        Gadd9
Who regrets the things they've done
                  Em7               F#7
Sometimes I just feel it's only me
             Bm7
Who never became who they thought they'd be


   B7           Em7                A7
I wish I could live a little more
                 DMaj7                  Gadd9
Look up to the sky, not just the floor
                Em7                 F#7
I feel like my life is flashing by
               Bm7
And all I can do is watch and cry


   B7      Em7              A7
I miss the air, I miss my friends
           DMaj7              Gadd9
I miss my mother, I miss it when
            Em7           F#7
Life was a party to be thrown
               *intro sequence*
But that was a million years ago

  A mill ion  years a         go
|------------------------|------------------------|
|----3----2--------------|----3~~~~~~~~~~~--------|
|--------------4----2----|----4~~~~~~~~~~~--------|
|----4----2----2~~~~~----|----4~~~~~~~~~~~--------|
|----2----0--------------|----2~~~~~~~~~~~--------|
|--------------3----2----|------------------------|
     Bm   A   Em/G  F#m7      Bm

            
            
Suggest correction
Creating personal tab
Creating personal tab
You can edit any tab online and save it as your Personal.

You can edit, replace or remove any tab part or add personal notes – all changes will be seen only by you.

Personal tabs can be accessed anytime from any device, even offline.
Learn more »
comments
print report bad tab
1 comment total.
+1 reply
jimbojones5678 75 Nov 23, 2015 06:20 PM

Much better.

guest
You may want to rate the tab now too:
select rating
Wanna post a correction for this tab? Suggest correction