Oops, an error
Loading. Please wait.

Close Friends intro tab

version 1
version 1

Intro

Whole song

Interactive

by Adema
392 views 1 this week
5 commentsread comments
1 2 3 4 5
1 last vote to show rating
add to favorites
×
Save as Personal and add changes to this tab that will be seen only by you. Learn more ›
×
You can save this tab as Personal to edit and correct it or add notes. All changes will be seen only by you. Learn more »
launch autoscroll
font size
0
reset
how to read this tab
guitar tuner
edit
Autoscroll
slow
fast
+/-
esc
set tempo
stop
Author
okay this is my first tab so please go easy on me. its only the intro so maybe
it'll give you a start. its how i hear it and i think its pretty close. ROCK ON!!!

as far as i can tell, it's in Standard tuning.
use lots of distortion and use one crazy-ass effect. i dont know what it is so sorry. 


e--------6-6-4-4-6-6-----6-6-9-9-8-8-----6-6-4-4-6-6-----6-6-4~
b----6-6-------------6-6-------------6-6-------------6-6-------
g--------------------------------------------------------------
d--------------------------------------------------------------
a--------------------------------------------------------------
E--------------------------------------------------------------

i'm not sure but i think the e-4~ , might be e-4h5 or e-4/5. not sure, just a suggestion.
thanks and enjoy

            
            
Suggest correction
Creating personal tab
Creating personal tab
You can edit any tab online and save it as your Personal.

You can edit, replace or remove any tab part or add personal notes – all changes will be seen only by you.

Personal tabs can be accessed anytime from any device, even offline.
Learn more »
Give kudos to tab author, rate the tab!
1 2 3 4 5
comments
print report bad tab
5 comments total. Showing first comments.
0 reply
blindfold7 15 Jul 20, 2003 08:00 PM

actually, i did something wrong. >:(
b-6 , should only be struck one time. i have 2 times for all of 'em.wrong.
also the e-4 should be struck once. like the 6's i got it marked as 2.

0 reply
blindfold7 15 Jul 20, 2003 08:00 PM

another thing i noticed :
after the first (you can see there's 4)
measure , there could be a b-7 instead of the b-6.
these are just suggestions on how to make it better for you guys. :)

0 reply
blindfold7 15 Jul 20, 2003 08:00 PM

here is the way i think it could be played:


e---6-6-4-6-6---6-6-9-9-8-8---6-6-4-6-6-
b-6-----------7-------------6-----------
g---------------------------------------
d---------------------------------------
a---------------------------------------
E---------------------------------------

e-----6-6-4~
b---6------

guest
You may want to rate the tab now too:
select rating
Wanna post a correction for this tab? Suggest correction