Oops, an error
Loading. Please wait.

Einstein Brain tab

version 3
version 3

Whole song

Interactive

308 views 3 this week
no commentswrite comment
1 2 3 4 5
2 more votes to show rating
add to favorites
×
Save as Personal and add changes to this tab that will be seen only by you. Learn more ›
×
You can save this tab as Personal to edit and correct it or add notes. All changes will be seen only by you. Learn more »
launch autoscroll
font size
0
reset
how to read this tab
guitar tuner
edit
Autoscroll
slow
fast
+/-
esc
set tempo
stop
Author
Difficulty
I found a lot of tabs but none were 100% so I gave it a shot
Hope you like it =)

Intro/Main riff


D|--5----

    F         C        Em     Am
Palm mute

e|----------------------------0------------------|
B|-1--1-1-1---1-1----------x--1------------------|
G|-2--2-2-0---0-0---0-0-0--x--2------------------|
D|-3--3-3-2---2-2---2-2-2--x--2------------------|
A|-3--3-3-3---3-3---2-2-2--x---------------------|  x4
E|-1--1-1-----------0-0-0------------------------|

F        C     Em       Am
she gave me a six month sentence
for not being charming towards her friends
with two hands you eat
one hand to greet
everything she said
sounded like a repeat
since 1983 we did not once agree
so let's get busy throwing arguements like
"good taste is equal to sencorship"
but you can't milk a cow with your hands in your pants

F      E
Complexity
       Am G    F
Of the hu-man psyche
E                             F
She's flushing my grey cells down the drain
G                 G G     N.C.
Tomorrow I'll have        My Einstein Brain

Chorus

F            C      Em    Am
Einstein Brain
My Einstein Brain  x2
Einstein Brain

I said "I hope to see you
The 23rd of June"
She said "there seems to be an illusion 
that escapes me"
Felt like James Cagney runnin outta coca-cola
But you can't milk a cow with your hands in your pants

F      E
Complexity
       Am G    F
Of the hu-man psyche
E                             F
She's flushing my grey cells down the drain
G                 G G     N.C.
Tomorrow I'll have        My Einstein Brain

Chorus
Take it away!

Solo

                      ~           ~                                ~
E|------------------8---------------------------------------------------|
B|----------------------------------------------------------------------|
G|------55-5-5-5--------------------------------5------------99 -7-5v---|
D|---------------------------------------7p5--7------5/7----------------|
A|-----------------------5h7-5-7-3v-------------------------------------|
E|----------------------------------------------------------------------|
            ~             ~
E|------------------------8--------------------------------------|
B|------8--10--------8-10-------10-8---8-10-8-10-8--/13-12-10-8--|
G|--/9-------------9-----------------9---------------------------|
D|---------------------------------------------------------------|
A|---------------------------------------------------------------|
E|---------------------------------------------------------------|

      F            E7
Maybe God wanted to make
          Am       G        F
Something ugly but in great shape
     F      E7
As a complexity
        Am G    F
Of the human psyche

Single strums
E
I used to go to the opera
F
I used to explain
     G
It's good to explore
N.C.
My Einstein Brain

Chorus till end

end riff

D|-3-2-0---|
A|-------3-|
 
There this other riff but I'm not sure what instrument it is anyway:
          ~
e|-------------------------|
B|-------------------------|
G|-10--9--5v---0h2--5--2---|

            
            
Suggest correction
Creating personal tab
Creating personal tab
You can edit any tab online and save it as your Personal.

You can edit, replace or remove any tab part or add personal notes – all changes will be seen only by you.

Personal tabs can be accessed anytime from any device, even offline.
Learn more »
Give kudos to tab author, rate the tab!
1 2 3 4 5
comments
print report bad tab
guest
You may want to rate the tab now too:
select rating
Wanna post a correction for this tab? Suggest correction