Oops, an error
Loading. Please wait.

Self Destruct tab

793 views 1 this week
1 commentread comment
1 2 3 4 5
1 last vote to show rating
add to favorites
×
Save as Personal and add changes to this tab that will be seen only by you. Learn more ›
×
You can save this tab as Personal to edit and correct it or add notes. All changes will be seen only by you. Learn more »
launch autoscroll
font size
0
reset
how to read this tab
guitar tuner
edit
Autoscroll
slow
fast
+/-
esc
set tempo
stop
song: self destruct
by:adolescents

verse
E---------------------|
B---------------------|
G---------------------|
D-------8-88-77-------|
A--7-77-6-66-55-8888--|
E--5-55---------6666--|

chorus
E-------------------|
B-------------------|
G-------------------|
D----------6-6-6-6--|
A--5-5-5-5-4-4-4-4--|
E--3-3-3-3----------|

timing:
verse......6x
chorus.....4x
verse......4x
chorus.....4x
bass solo..2x
solo.......?

the bass solo is just the verse. but the guitar solo is like well first of all its too 
to hear for me to learn it. second of all its basically a bunch of high pitch noises and 
on the E B G and D strings. like they didnt plan it out like frank agnew just plays it different every time you know.

            
            
Suggest correction
Creating personal tab
Creating personal tab
You can edit any tab online and save it as your Personal.

You can edit, replace or remove any tab part or add personal notes – all changes will be seen only by you.

Personal tabs can be accessed anytime from any device, even offline.
Learn more »
Give kudos to tab author, rate the tab!
1 2 3 4 5
comments
print report bad tab
1 comment total.
-1 reply
trivium036 40 Jan 31, 2010 12:28 PM

chorus is wrong

|-----------------------------------
|-----------------------------------
|-----------------------------------
|-----3-3-----------------------------
|-2-2-3-3-------------------------------
|-2-2-1-1-------------------------------
|-0-0---------------------------------

Is what i hear

guest
Wanna post a correction for this tab? Suggest correction