Oops, an error
Loading. Please wait.

Lying Awake tab

172 views 1 this week
no commentswrite comment
1 2 3 4 5
3 more votes to show rating
add to favorites
×
Save as Personal and add changes to this tab that will be seen only by you. Learn more ›
×
You can save this tab as Personal to edit and correct it or add notes. All changes will be seen only by you. Learn more »
launch autoscroll
font size
0
reset
how to read this tab
guitar tuner
edit
Autoscroll
slow
fast
+/-
esc
set tempo
stop
Author
Difficulty
Hello fellow guitarists. My band Adrenaline is in the process of recording an album
now and one of my favorite songs on it is our original called Lying Awake. If you want to
out our songs go to http://www.myspace.com/weareadrenaline. They're only rough copies 
soon they'll be professional. Rate well please and check us out. Thanks.

Bass intro:
g|------------------------------|
d|---------------2--------------| x2
a|------------1h2----------5-4--|
e|-0-0h3^p0-0-----0-0h3^p0--7-5-|

(the bass riff goes 32 more times behind the verse)

Verse:
e|------------------------------------------------------------------|
b|------------------------------------------------------------------|
g|-9999999999999999888888888888888877777777777777776666666666666666-|
d|-xxxxxxxxxxxxxxxxxxxxxxxxxxxxxxxxxxxxxxxxxxxxxxxxxxxxxxxxxxxxxxxx-|
a|-7777777777777777666666666666666655555555555555554444444444444444-|    x8
e|------------------------------------------------------------------|

Chorus:
e|----------------------|
b|-----------3-3-33-----|
g|-----------2-2-22-220-|
d|-2-2-22-55/0-0-00-220-| x4
a|-2-2-22-55/-------000-|
e|-0-0-00-33/-----------|

Verse:
e|------------------------------------------------------------------|
b|------------------------------------------------------------------|
g|-9999999999999999888888888888888877777777777777776666666666666666-|
d|-xxxxxxxxxxxxxxxxxxxxxxxxxxxxxxxxxxxxxxxxxxxxxxxxxxxxxxxxxxxxxxxx-|
a|-7777777777777777666666666666666655555555555555554444444444444444-|    x8
e|------------------------------------------------------------------|

Chorus:
e|----------------------|
b|-----------3-3-33-----|
g|-----------2-2-22-220-|
d|-2-2-22-55/0-0-00-220-| x4
a|-2-2-22-55/-------000-|
e|-0-0-00-33/-----------|

Interlude:
e|---------------------------|
b|---------------------------|
g|-99-99-88-88-77-77-66-66---|
d|-xx-xx-xx-xx-xx-xx-xx-xx---|
a|-77-77-66-66-55-55-44-44---| x2
e|------------------------6~-|
PH                        .

Solo:
e|------------------------------------------------------------------|
b|------------------------------------------------------------------|
g|-9999999999999999888888888888888877777777777777776666666666666666-|
d|-xxxxxxxxxxxxxxxxxxxxxxxxxxxxxxxxxxxxxxxxxxxxxxxxxxxxxxxxxxxxxxxx-|
a|-7777777777777777666666666666666655555555555555554444444444444444-|    x8
e|------------------------------------------------------------------|

(Our lead guitarist improvises solo's so just do a solo in the key of e)

Chorus:
e|----------------------|
b|-----------3-3-33-----|
g|-----------2-2-22-220-|
d|-2-2-22-55/0-0-00-220-| x4
a|-2-2-22-55/-------000-|
e|-0-0-00-33/-----------|

Outro:
e|------------------------------------------------------------------|
b|------------------------------------------------------------------|
g|-9999999999999999888888888888888877777777777777776666666666666666-|
d|-xxxxxxxxxxxxxxxxxxxxxxxxxxxxxxxxxxxxxxxxxxxxxxxxxxxxxxxxxxxxxxxx-|
a|-7777777777777777666666666666666655555555555555554444444444444444-|    x4
e|------------------------------------------------------------------|

End chord:
e|---|
b|---|
g|-9-|
d|-x-|
a|-7-|
e|-0-|

LYRICS:
(No lyrics for bass intro)
Verse:
Lying awake
My face is a window
though i see the quake
i can't afford to budge

Time to take
My place in the ocean
Where dreams may come
And i am full of motion

Lying awake
My face is a window
though i see the quake
i can't afford to budge

Time to take
My place in the ocean
Where dreams may come
And i am full of motion

Chorus:
Go now drift away
travel to another place
scratching itching leave us here
listen with your hollow ears

Go now drift away
travel to another place
scratching itching leave us here
listen with your hollow ears

verse:
i'd love to embrace
the darkness around me
fall in empty space
till i wake again

A place to escape
like a city of angels
how long will it take
only time will tell

i'd love to embrace
the darkness around me
fall in empty space
till i wake again

A place to escape
like a city of angels
how long will it take
only time will tell

Chorus:
Go now drift away
travel to another place
scratching itching leave us here
listen with your hollow ears

Go now drift away
travel to another place
scratching itching leave us here
listen with your hollow ears

(No lyrics for interlude)

Chorus:
Go now drift away
travel to another place
scratching itching leave us here
listen with your hollow ears

Go now drift away
travel to another place
scratching itching leave us here
listen with your hollow ears

(no lyrics for outro)

Check out Adrenaline at www.myspace.com/weareadrenaline.
Email me at hunewearlpso80@yahoo.com if you need anything.

            
            
Suggest correction
Creating personal tab
Creating personal tab
You can edit any tab online and save it as your Personal.

You can edit, replace or remove any tab part or add personal notes – all changes will be seen only by you.

Personal tabs can be accessed anytime from any device, even offline.
Learn more »
Give kudos to tab author, rate the tab!
1 2 3 4 5
comments
print report bad tab
guest
You may want to rate the tab now too:
select rating
Wanna post a correction for this tab? Suggest correction