Oops, an error
Loading. Please wait.

Just Push Play tab

version 4
version 4

Whole song

Interactive

1,285 views 1 this week
no commentswrite comment
1 2 3 4 5
3 more votes to show rating
add to favorites
×
Save as Personal and add changes to this tab that will be seen only by you. Learn more ›
×
You can save this tab as Personal to edit and correct it or add notes. All changes will be seen only by you. Learn more »
launch autoscroll
font size
0
reset
how to read this tab
guitar tuner
edit
Autoscroll
slow
fast
+/-
esc
set tempo
stop
Author
-------------------------------------------------------------------------------
                             "Just Push Play" - Aerosmith
-------------------------------------------------------------------------------

                              +++++++++++++++++++++++
                              +                     +
                          +++++ Tabbed by: [travis] +++++
                              +                     +
                              +++++++++++++++++++++++



Tunings: Guitars 1,2,3,5,6: Drop D (D A D G B E) low to high
         Guitar 4: Open G (D G D G B D) low to high
 



I'm surprised there isn't a good tab for this awesome song. 
This is such an easy song to figure out.



Legend:

. = palm mute
h = hammer on
p = pull off
b = bend
1 = full step bend
.5 = half step bend
pb = pre bend
* pinch harmonic
/ = slide up
\ = slide down
" = harmonic
h/ = pick once
h/p\ = pick once
__ = hold bend
() = bring bent note back to normal
x = muffled string
~ = vibrato/ring out




===========================================
Guitar 1: use a flanger or phaser.
e|-------------------------------|
B|-------------------------------|
G|-------------------------------|
D|-------------------------------| x2
A|-------------------------------|
D|-0~~~~~~~~~~~~~~~~~~~~~~~~~~~~~|

============================================
Guitar 2: 
e|----------------------------------------------------------------------------------------|
B|-15-15-15-15-15-15---15---15--15-15-15\10-10/15-15-15-15-15-15---15--15--15-15-15-15-10-|
G|--x--x--x--x--x--x-x--x----x---x--x--x--x--x--x--x--x--x--x--x-x--x---x---x--x--x--x--x-|
D|-12-12-12-12-12-12-x-12---12--12-12-12\-7--7/12-12-12-12-12-12-x-12--12--12-12-12-12--7-| x3 1/2
A|----------------------------------------------------------------------------------------|
D|----------------------------------------------------------------------------------------|

============================================
Guitar 3:
    1_____________
e|-----------------------------------|
B|-------------------------9~~~~~~~--|
G|-5~~~~~~~~~~~~~~---------9~~~~~~~--|
D|-6b~~~~~~~~~~~~~---------9~~~~~~~--| x1
A|-------------------------0~~~~~~~--|
D|-----------------------------------|

Guitar 4:
D|------------------------/7~~~~~~~--|
B|------------------------/7~~~~~~~--|
G|------------------------/7~~~~~~~--|
D|-----------------------------------| x1
G|-----------------------------------|
D|-----------------------------------|

=============================================
Guitar 5:
e|------------------------------|
B|------------------------------|
G|------------------------------|
D|------------------------------| x1
A|----------5p0-----------------|
D|-5--6--7------0-5--3-0--0--0--|

Guitar 6:
e|------------------------------|
B|------------------------------|
G|------------------------------|
D|------------------------------| x1
A|----------5p0-----------------|
D|-5--6--7------0-5--3-0--0--0--|

==============================================
Guitar 5:
e|-----------------------------------------------------------|
B|-----------------------------------------------------------|
G|-----------------------------------------------------------|
D|-----------------------------------------------------------| x1
A|----------5p0---------------------------5p0----------------|
D|-5--6--7------0-5--4-3~~-0--0--5--6--7------0-5--3-0--0--0-|

Guitar 6:
e|-----------------------------------------------------------|
B|-----------------------------------------------------------|
G|-----------------------------------------------------------|
D|-----------------------------------------------------------| x1
A|----------5p0---------------------------5p0----------------|
D|-5--6--7------0-5--4-3~~-0--0--5--6--7------0-5--3-0--0--0-|

==============================================
Guitar 5:
e|-----------------------------------------------------------|
B|-----------------------------------------------------------|
G|-----------------------------------------------------------|
D|-----------------------------------------------------------| x3
A|-5--6--7--5p0---5--4-3--0--0--5--6--7--5p0----5--3-0--0--0-|
D|-5--6--7------0-5--4-3--0--0--5--6--7-------0-5--3-0--0--0-|

Guitar 6:
e|-----------------------------------------------------------|
B|-----------------------------------------------------------|
G|-----------------------------------------------------------|
D|-----------------------------------------------------------| x3
A|-5--6--7--5p0---5--4-3--0--0--5--6--7--5p0----5--3-0--0--0-|
D|-5--6--7------0-5--4-3--0--0--5--6--7-------0-5--3-0--0--0-|



===============================================
Guitar 5:
e|-----------------------------------------------------|
B|-----------------------------------------------------|
G|-----------------------------------------------------|
D|-----------------------------------------------------| x2
A|-5----8---8-7--------5----8---8-7-------5----5--5--5-|
D|-5----5---5-5--------5----5---5-5-------5----5--5--5-|

===============================================
Guitar 5:
e|-----------------------------------------------------------|
B|-----------------------------------------------------------|
G|-----------------------------------------------------------|
D|-----------------------------------------------------------| x2
A|----------5p0---------------------------5p0----------------|
D|-5--6--7------0-5--4-3~~-0--0--5--6--7------0-5--3-0--0--0-|

Guitar 6:
e|-----------------------------------------------------------|
B|-----------------------------------------------------------|
G|-----------------------------------------------------------|
D|-----------------------------------------------------------| x2
A|----------5p0---------------------------5p0----------------|
D|-5--6--7------0-5--4-3~~-0--0--5--6--7------0-5--3-0--0--0-|

================================================
Guitar 5:
e|-----------------------------------------------------------|
B|-----------------------------------------------------------|
G|-----------------------------------------------------------|
D|-----------------------------------------------------------| x2
A|-5--6--7--5p0---5--4-3--0--0--5--6--7--5p0----5--3-0--0--0-|
D|-5--6--7------0-5--4-3--0--0--5--6--7-------0-5--3-0--0--0-|

Guitar 6:
e|-----------------------------------------------------------|
B|-----------------------------------------------------------|
G|-----------------------------------------------------------|
D|-----------------------------------------------------------| x2
A|-5--6--7--5p0---5--4-3--0--0--5--6--7--5p0----5--3-0--0--0-|
D|-5--6--7------0-5--4-3--0--0--5--6--7-------0-5--3-0--0--0-|


=================================================

Guitar 5:
e|-----------------------------------------------------|
B|-----------------------------------------------------|
G|-----------------------------------------------------|
D|-----------------------------------------------------| x2
A|-5----8---8-7--------5----8---8-7-------5----5--5--5-|
D|-5----5---5-5--------5----5---5-5-------5----5--5--5-|



=================================================
Guitar 5:
e|-----------------------------------------------------------|
B|-----------------------------------------------------------|
G|-----------------------------------------------------------|
D|-----------------------------------------------------------| x2
A|----------5p0---------------------------5p0----------------|
D|-5--6--7------0-5--4-3~~-0--0--5--6--7------0-5--3-0--0--0-|

Guitar 6:
e|-----------------------------------------------------------|
B|-----------------------------------------------------------|
G|-----------------------------------------------------------|
D|-----------------------------------------------------------| x2
A|----------5p0---------------------------5p0----------------|
D|-5--6--7------0-5--4-3~~-0--0--5--6--7------0-5--3-0--0--0-|

==================================================
Guitar 3: use a slide. Slowly slide up from the 13th fret to the 15th fret.
e|-------------------------|
B|-13h/15~~~~~~~~~~~15\----|
G|-------------------------|
D|-------------------------|
A|-------------------------|
D|-------------------------|

==================================================
Guitar 5:
e|------------------------------------------------------|
B|-17b~~~~~~~~~-----------------17pb----(17)---17~~~~~~~|
G|-16b~~~~~~~~~-----------------16pb----(16)---14~~~~~~~|
D|------------------------------------------------------| x2
A|------------------------------------------------------|
D|------------------------------------------------------|

===================================================
Guitar 5:
e|-------------------------------|
B|-------------------------------|
G|-------------------------------|
D|-------------------------------|
A|----------5--------------------|
D|-5--6--7-----------------------|

Guitar 6:
                            .5__
e|----------------17-18-19-19b~~-|
B|-------------------------------|
G|-------------------------------|
D|-------------------------------|
A|-------------------------------|
D|-------------------------------|

Guitar 3:
e|-10-------10---10-10----|
B|--9--------9----9--9----|
G|--7--------7----7--7----|
D|------------------------|
A|------------------------|
D|------------------------|

====================================================
Guitar 1: 
e|---------------------------------------------------------------------|
B|-x-x-x-x-x-x-----14--15-15-15-15-15-15--------14--15-15-15-15-15-15--|
G|-x-x-x-x-x-x------x---x--x--x--x--x--x---------x---x--x--x--x--x--x--|
D|-x-x-x-x-x-x-----11--12-12-12-12-12-12--------11--12-12-12-12-12-12--|
A|---------------------------------------------------------------------|
D|---------------------------------------------------------------------|

Guitar 3:
e|-10--10-10-----------10---|
B|--9---9--9------------9---|
G|--7---7--7------------7---|
D|--------------------------|
A|--------------------------|
D|--------------------------|

Guitar 5:
e|--------------------------------------------------------------|
B|--------------------------------------------------------------|
G|--------------------------------------------------------------|
D|--------------------------------------------------------------| 
A|-------------5p0---------------------------5p0----------------|
D|-0--5--6--7------0-5--4-3~~-0--0--5--6--7------0-5--3-0--0--0-|

Guitar 6:
e|--------------------------------------------------------------|
B|--------------------------------------------------------------|
G|--------------------------------------------------------------|
D|--------------------------------------------------------------| 
A|-------------5p0---------------------------5p0----------------|
D|-0--5--6--7------0-5--4-3~~-0--0--5--6--7------0-5--3-0--0--0-|

=====================================================
Guitar 5:
e|-----------------------------------------------------------|
B|-----------------------------------------------------------|
G|-----------------------------------------------------------|
D|-----------------------------------------------------------| x2
A|----------5p0---------------------------5p0----------------|
D|-5--6--7------0-5--4-3~~-0--0--5--6--7------0-5--3-0--0--0-|

Guitar 6:
e|-----------------------------------------------------------|
B|-----------------------------------------------------------|
G|-----------------------------------------------------------|
D|-----------------------------------------------------------| x2
A|----------5p0---------------------------5p0----------------|
D|-5--6--7------0-5--4-3~~-0--0--5--6--7------0-5--3-0--0--0-|


======================================================
Guitar 1:
e|-----------------------------------------------|
B|-14--15-15-15-15-15-15---------14--15-15--15---|
G|--x---x--x--x--x--x--x----------x---x--x---x---|
D|-11--12-12-12-12-12-12---------11--12-12--12---| x3
A|-----------------------------------------------|
D|-----------------------------------------------|

======================================================
"Walk this Way."
Guitar 5:
e|---------------------------------|
B|---------------------------------|
G|---------------------------------|
D|---------------------------------|
A|----------5------------5------5--|
D|-5--6--7------5--6--7------0-----|

=======================================================
Guitar 5:
e|-----------------------------------------------------------|
B|-----------------------------------------------------------|
G|-----------------------------------------------------------|
D|-----------------------------------------------------------| x2
A|----------5p0---------------------------5p0----------------|
D|-5--6--7------0-5--4-3~~-0--0--5--6--7------0-5--3-0--0--0-|

Guitar 6:
e|-----------------------------------------------------------|
B|-----------------------------------------------------------|
G|-----------------------------------------------------------|
D|-----------------------------------------------------------| x2
A|----------5p0---------------------------5p0----------------|
D|-5--6--7------0-5--4-3~~-0--0--5--6--7------0-5--3-0--0--0-|

========================================================
Guitar 5:
e|-----------------------------------------------------------|
B|-----------------------------------------------------------|
G|-----------------------------------------------------------|
D|-----------------------------------------------------------| x1
A|-5--6--7--5p0---5--4-3--0--0--5--6--7--5p0----5--3-0--0--0-|
D|-5--6--7------0-5--4-3--0--0--5--6--7-------0-5--3-0--0--0-|

Guitar 6:
e|-----------------------------------------------------------|
B|-----------------------------------------------------------|
G|-----------------------------------------------------------|
D|-----------------------------------------------------------| x1
A|-5--6--7--5p0---5--4-3--0--0--5--6--7--5p0----5--3-0--0--0-|
D|-5--6--7------0-5--4-3--0--0--5--6--7-------0-5--3-0--0--0-|



Guitar 3:
     1              1_____________
e|------------10------------------|
B|-13b-----13-----13b~~~~~~~~~~~~~|
G|--------------------------------|
D|--------------------------------|
A|--------------------------------|
D|--------------------------------|

==========================================================
Guitar 5:
e|-----------------------------------------------------------|
B|-----------------------------------------------------------|
G|-----------------------------------------------------------|
D|-----------------------------------------------------------| x1
A|-5--6--7--5p0---5--4-3--0--0--5--6--7--5p0----5--3-0--0--0-|
D|-5--6--7------0-5--4-3--0--0--5--6--7-------0-5--3-0--0--0-|

Guitar 6:
e|-----------------------------------------------------------|
B|-----------------------------------------------------------|
G|-----------------------------------------------------------|
D|-----------------------------------------------------------| x1
A|-5--6--7--5p0---5--4-3--0--0--5--6--7--5p0----5--3-0--0--0-|
D|-5--6--7------0-5--4-3--0--0--5--6--7-------0-5--3-0--0--0-|



Guitar 3: listen for timing.
                         1_________
e|----------10----13--13pb~~~~~~~~(13)p10--|
B|-13p10-----------------------------------|
G|-------12----10--------------------------|
D|-----------------------------------------|
A|-----------------------------------------|
D|-----------------------------------------|


============================================================
Guitar 5:
e|-----------------------------------------------------------|
B|-----------------------------------------------------------|
G|-----------------------------------------------------------|
D|-----------------------------------------------------------| x1
A|-5--6--7--5p0---5--4-3--0--0--5--6--7--5p0----5--3-0--0--0-|
D|-5--6--7------0-5--4-3--0--0--5--6--7-------0-5--3-0--0--0-|

Guitar 6:
e|-----------------------------------------------------------|
B|-----------------------------------------------------------|
G|-----------------------------------------------------------|
D|-----------------------------------------------------------| x1
A|-5--6--7--5p0---5--4-3--0--0--5--6--7--5p0----5--3-0--0--0-|
D|-5--6--7------0-5--4-3--0--0--5--6--7-------0-5--3-0--0--0-|


Guitar 3: listen for timing.
             1___________              1_______________

e|-10---10-10~~~~~~~~~~~~----10---10-10~~~~~~~~~~~~~~~~--|
B|-13---13-13b~~~~~~~~~~~----13---13-13b~~~~~~~~~~~~~~~--|
G|-------------------------------------------------------|
D|-------------------------------------------------------|
A|-------------------------------------------------------|
D|-------------------------------------------------------|



==============================================================
Guitars 5 and 6:
e|-------------------------------------|
B|-------------------------------------|
G|-------------------------------------|
D|-------------------------------------|
A|-0~~~~~~~~~~~~~~~~~~~~~~~~~~~~~~~~~~~|
D|-0~~~~~~~~~~~~~~~~~~~~~~~~~~~~~~~~~~~|

Guitar 3: 
e|-/19~~~~-/20~~~~~~~~~~~~20\----------------------------------|
B|-------------------------------------------------------------|
G|-------------------------------------------------------------|
D|----------------------------15h/16~~~~~~~~-------------------|
A|-------------------------------------------------------------|
D|------------------------------------------12-12-12--12p\10~~~|

Guitar 1: use talk box. Listen for rhythm too.
e|---------------------------------------------------------------------------------------|
B|---------------------------------------------------------------------------------------|
G|---------------------------------------------------------------------------------------|
D|---------------------------------------------------------------------------------------|
A|-15-17-17-17-20-17-17-17-15-17-17-17-17-17---15-17-17-17-20-17-17-17-15-17-17-17-17-17-|
D|--0--0--0--0--0--0--0--0--0--0--0--0--0--0----0--0--0--0--0--0--0--0--0--0--0--0--0--0-|

================================================================
Guitar 1: use talk box. Listen for rhythm too.
e|---------------------------------------------------------------------------------------|
B|---------------------------------------------------------------------------------------|
G|---------------------------------------------------------------------------------------|
D|---------------------------------------------------------------------------------------| x7
A|-15-17-17-17-20-17-17-17-15-17-17-17-17-17---15-17-17-17-20-17-17-17-15-17-17-17-17-17-|
D|--0--0--0--0--0--0--0--0--0--0--0--0--0--0----0--0--0--0--0--0--0--0--0--0--0--0--0--0-|


Guitar 3:
e|--------------------------14p\12~~~~--12---------------------------------------|
B|------------------/15~~~~------------------------------------------------------|
G|-14p\12~~~~~~~~14--------------------------------------------------------------|
D|-------------------------------------------------------------------------------|
A|-----------------------------------------15h/17-17~~/17~~-17~~-17--17*p\15~~~~-|
D|-------------------------------------------------------------------------------|


Guitar 3:
                                                                       1___
e|----------------------------------------10-------10----------10-10-----------------|
B|-------------------------------------10----13~~~~---13p10----------13b--(13)p10----|
G|---------------------10-12--10-10h11----------------------12--------------------12-|
D|-----------------------------------------------------------------------------------|
A|-15h/17--17~~~~~-x-x---------------------------------------------------------------|
D|-----------------x-x---------------------------------------------------------------|


Guitar 3:
       1___ 
e|-10---------------------------------------------------------------|
B|------------------------------------------------------------------|
G|---12b--(12)p10----12p10----10------------------------------------|
D|----------------12-------12----12-10-12~~~-12~~-10----------------|
A|---------------------------------------------------12-11-10p9~~~~~|
D|------------------------------------------------------------------|

======================================================================
Guitar 5:
e|-------------------------------|
B|-------------------------------|
G|-------------------------------|
D|-------------------------------| x4
A|-3-5---3-5---3-5---3-5---3-5---|
D|-----0-----0-----0-----0-----0-|

======================================================================
Guitar 5:
e|-------------------------------|
B|-------------------------------|
G|-------------------------------|
D|-------------------------------| x2
A|-3-5---3-5---3-5---3-5---3-5---|
D|-----0-----0-----0-----0-----0-|


Guitar 6:
e|-------------------------------------------------------|
B|-------------------------------------------------------|
G|-------------------------------------------------------|
D|-------------------------------------------------------| x1
A|-------------------------------------------------------|
D|-2-2--2-2-2-2---2---2---2-2-2---2-2---2-2-2-2---2---2--|


=======================================================================
Guitar 5:
e|---------------|
B|---------------|
G|---------------|
D|---------------|
A|-3-------------|
E|---------------|

Guitar 4:
D|-10------------|
B|--9------------|
G|--7------------|
D|---------------|
G|---------------|
D|---------------|


Please Rate and Comment My Tab.
[travis]





=======================================

            
            
Suggest correction
Creating personal tab
Creating personal tab
You can edit any tab online and save it as your Personal.

You can edit, replace or remove any tab part or add personal notes – all changes will be seen only by you.

Personal tabs can be accessed anytime from any device, even offline.
Learn more »
Give kudos to tab author, rate the tab!
1 2 3 4 5
comments
print report bad tab
guest
You may want to rate the tab now too:
select rating
Wanna post a correction for this tab? Suggest correction