Oops, an error
Loading. Please wait.

End Transmission bass

version 1
version 1

Whole song

Interactive

by AFI
4,602 views 1 this week
1 commentread comment
1 2 3 4 5
1 last vote to show rating
add to favorites
×
Save as Personal and add changes to this tab that will be seen only by you. Learn more ›
×
You can save this tab as Personal to edit and correct it or add notes. All changes will be seen only by you. Learn more »
launch autoscroll
font size
0
reset
guitar tuner
edit
Autoscroll
slow
fast
+/-
esc
set tempo
stop
Author
Difficulty
End Transmission [Artist: AFI  Album: Crash Love]

Tabbed By: Skerlnik
Tuning: EADG

[0:13] intro                first time  second time
G|--------------------------|-----------|-----------|
D|--------------------------|-----------|-----------|
A|-------3-4(x15)--3--------|--6(x16)---|--3(x16)---| x2
E|-1(x15)-----------4(x16)--|-----------|-----------|

[0:33] verse x2                                 first time
G|---------------------------------------------|----------------|
D|---------------------------------------------|----------------|
A|----------------3444-4-44-443----------------|-----------3333-|
E|-1111-1-11-111-----------------4444-4-44-444-|-3333-3-33------|

1st verse 2nd time    2nd verse 2nd time
G|---------------|    |------------------|  
D|-5555----------|    |--5555-5-55-5555--|  
A|-----------333-|    |------------------|  
E|------3-33-----|    |------------------|  

[0:54] intro (second time only)
[1:03] verse x2

[1:24] chorus x2
G|--------------------------------------------------------------|
D|--------------------------------------------------------------|
A|-4-4-444-44-446--------------4-6-6-666-66---6-8---8-6---6-----|
E|----------------1-1-111-1111--------------8-----8-----8-------|

G|--------------------------------------------------------------|
D|--------------------------------------------------------------|
A|-4-4-444-44-446--------------2-3-3-333-3333-33-6-6-666-666-66-|
E|----------------4-4-444-4444----------------------------------|

[1:44] intro (second time only)
[1:54] verse x2

[2:36] breakdown
G|-------------------------------------------|
D|-------------------------------------------|
A|-4--6-----8--4---8------4--6-----8--4---6--|
E|-------8----------------------8------------|

[2:55] chorus x2

[3:35] outro
G|--------------------|
D|--------------------|
A|--------------------| 3x 
E|-1111-1-11-111[1]---| (3rd time play the extra [1])

            
            
Suggest correction
Creating personal tab
Creating personal tab
You can edit any tab online and save it as your Personal.

You can edit, replace or remove any tab part or add personal notes – all changes will be seen only by you.

Personal tabs can be accessed anytime from any device, even offline.
Learn more »
Give kudos to tab author, rate the tab!
1 2 3 4 5
comments
print report bad tab
1 comment total.
0 reply
MrCash247 103 Jan 13, 2010 01:25 PM

SOLID GREAT TAB DUDE

guest
You may want to rate the tab now too:
select rating
Wanna post a correction for this tab? Suggest correction