Oops, an error
Loading. Please wait.

Endlessly She Said tab

version 3
version 3

Whole song

Interactive

by AFI
3,765 views 1 this week
2 commentsread comments
1 2 3 4 5
x 6
add to favorites
×
Save as Personal and add changes to this tab that will be seen only by you. Learn more ›
×
You can save this tab as Personal to edit and correct it or add notes. All changes will be seen only by you. Learn more »
launch autoscroll
font size
0
reset
how to read this tab
guitar tuner
edit
Autoscroll
slow
fast
+/-
esc
set tempo
stop
Author
Difficulty
[Endlessly, She Said]
[AFI]
[Decemberunderground]

By: Joshua Oliveira
Tuning: C# G# C# F# A# D# (Drop D from regular AFi tuning.)

*Ok now tuning is key in this song, AFI uses Drop D now. If you don't
 believe me tune to what i have above and play this song..then you'll
 see. Without Drop D you can't hit the low open E notes in some parts
 of the song. Also i appologise if the tab gets cut out, complain to
 the site about that cuz it tends to happen..alot.*

[Sounds] - [00:00] - [00:25]

[Intro] - [00:25] - [00:41]
- -----------------------------------------------------------------------|
- --7----5--------7--7----5-------------------7----5--------7-8-----5----|
- ---7--6-6-6--6/7-7--7----7-6-----------------7--6-6-6--6/7---7-----7-6-|
- -9----------------9----7--7--9--9-9-9--9-9-9---------------9--9--7--7--|
- -----------------------------10-9-9-10-9-9-----------------------------|
- -----------------------------9--9-9-9--9-9-----------------------------|

  ---------------|
  ---------------|
  ---------------|
  -9--9-9-9--9-9-|
  -10-9-9-10-9-9-|
  -9--9-9-9--9-9-|

[Verse 1] - [00:41] - [01:15]
- ---------------------------------------------------------------------|
- --------------------------7----5--------7-8-----5--------------------|
- -7~----7-6-----------------7--6-6-6--6\7---7-----7-6-----------------|
- ------7-7--9--9-9-9--9-9-9---------------9--9--7--7---9--9--9-9-9--9-|
- -----------10-9-9-10-9-9------------------------------10-10-9-9-9--9-|
- -----------9--9-9-9--9-9------------------------------9--9--9-9-9--9-|

  ---------------------------------------------------------------------|
  ---------------------------------------------------------------------|
  ------------777-6-6-6------999-7-7-7------777-6-6-6------------------|
  9-9\-0-7\9/-----------7\9/-----------7\9/-----------9--9--9-9-9--9-9-|
  9-9\-0-7\9/-----------7\9/-----------7\9/-----------10-10-9-9-9--9-9-|
  9-9\-0-7\9/-----------7\9/-----------7\9/-----------9--9--9-9-9--9-9-|

  ---------------------------------------------------------------------|
  ---------------------------------------------------------------------|
  ----------777-6-6-6--------999-7-7-7--------111111-9-9-9-------------|
  9\-0-7\9/-----------7-7\9/-----------7-7\9/--------------9--9--9-9-9-|
  9\-0-7\9/-----------7-7\9/-----------7-7\9/--------------10-10-9-9-9-|
  9\-0-7\9/-----------7-7\9/-----------7-7\9/--------------9--9--9-9-9-|

  ---------------------------|
  ---------------------------|
  ---------------------------|
  -9-9-9-9-9--9-9-9-9-9--7-5-|
  -9-9-9-9-9--9-9-9-9-9--7-5-|
  -9-9-9-9-9--9-9-9-9-9--7-5-|

[Chorus 1] - [01:15] - [01:35]
- ----------------------------------------------------------------------|
- ----------------------------------------------------------------------|
- -------------9\11-11-11-11-11-11-11-11-11-----------------------------|
- -9-999-9-9-9-x-x--x--x--x--x--x--x--x--x--7-777-7-7-7--7-777--7-5--9--|
- -9-999-9-9-9-7\9--9--9--9--9--9--9--9--9--7-777-7-7-7--7-777--7-5--9--|
- -9-999-9-9-9-0-0--0--0--0--0--0--0--0--0--7-777-7-7-7--7-777--7-5--9--|

  ----------------------------------------------------------------------|
  ----------------------------------------------------------------------|
  -------------11-11-11-11-11\12-12-12-12-12----------------------------|
  -999-9-9-9-0-x--x--x--x--x--x--x--x--x--x--7-777-7-7-7--7-777--7-5--9-|
  -999-9-9-9-0-9--9--9--9--9-\10-10-10-10-10-7-777-7-7-7--7-777--7-5--9-|
  -999-9-9-9-0-0--0--0--0--0--0--0--0--0--0--7-777-7-7-7--7-777--7-5--9-|

  -------------------|
  -------------------|  I know theres other octave chords in ther, i just
  -------------------|  din't tab them in cuz most of them you can't play
  999-9-9-9--9-999-9-|  seeing as how they're a second guitar behind the
  999-9-9-9--9-999-9-|  first.
  999-9-9-9--9-999-9-|

[Verse 2] - [01:35] - [02:09]
- ------<7>--------<12>---------------------------------------------------|
- ---<7>--------<7>-------------------------------------------------------|
- <7>---------<7>----------------------------------777-6-6-6------999-7-7-|
- -^------------------9--9--9-9-9--9-9-9\-0---7\9/-----------7\9/---------|
- -|------------------10-10-9-9-9--9-9-9\-0---7\9/-----------7\9/---------|
- -|------------------9--9--9-9-9--9-9-9\-0---7\9/-----------7\9/---------|
   |_____That note is either very quiet or not there at all..your call.

  ------------------------------------------------------------------------|
  ------------------------------------------------------------------------|
  7------777-6-6-6-----------------------------777-6-6-6--------999-7-7-7-|
  --7\9/-----------9--9--9-9-9--9-9-9\-0--7\9/-----------7-7\9/-----------|
  --7\9/-----------10-10-9-9-9--9-9-9\-0--7\9/-----------7-7\9/-----------|
  --7\9/-----------9--9--9-9-9--9-9-9\-0--7\9/-----------7-7\9/-----------|

  --------------------------------------------------------------|
  --------------------------------------------------------------|
  --------111111-9-9-9--------------------------------   <-- 11-|s
  -7-7\9/--------------9--9--9-9-9--9-9-9-9-9-----7-5-----------|
  -7-7\9/--------------10-10-9-9-9--9-9-9-9-9-----7-5-----------|
  -7-7\9/--------------9--9--9-9-9--9-9-9-9-9-----7-5-----------|

[Chorus 2] - [02:09] - [02:29]
- ----------------------------------------------------------------------|
- ----------------------------------------------------------------------|
- -------------9\11-11-11-11-11-11-11-11-11-----------------------------|
- -9-999-9-9-9-x-x--x--x--x--x--x--x--x--x--7-777-7-7-7--7-777--7-5--9--|
- -9-999-9-9-9-7\9--9--9--9--9--9--9--9--9--7-777-7-7-7--7-777--7-5--9--|
- -9-999-9-9-9-0-0--0--0--0--0--0--0--0--0--7-777-7-7-7--7-777--7-5--9--|

  ----------------------------------------------------------------------|
  ----------------------------------------------------------------------|
  -------------11-11-11-11-11\12-12-12-12-12----------------------------|
  -999-9-9-9-0-x--x--x--x--x--x--x--x--x--x--7-777-7-7-7--7-777--7-5--9-|
  -999-9-9-9-0-9--9--9--9--9-\10-10-10-10-10-7-777-7-7-7--7-777--7-5--9-|
  -999-9-9-9-0-0--0--0--0--0--0--0--0--0--0--7-777-7-7-7--7-777--7-5--9-|

  -------------------|
  -------------------|
  -------------------|
  999-9-9-9--9-999-9-|
  999-9-9-9--9-999-9-|
  999-9-9-9--9-999-9-|

[Bridge 1] - [02:29] - [02:45]
- -------10---------------------------------10---------------------------|
- -7h8-----8--------------------------7h8-----8--------------------------|
- ----9-9---9----------------------------9-9---9-------------------------|
- ------------9-9-9-9-9-9-9-9-9-9-9-9------------9-9-9-9-9-9-9-9-9-9-9-9-|
- ------------9-9-9-9-9-9-9-9-9-9-9-9------------9-9-9-9-9-9-9-9-9-9-9-9-|
- ------------9-9-9-9-9-9-9-9-9-9-9-9------------9-9-9-9-9-9-9-9-9-9-9-9-|
PM            ...........                        ...........

  -------10----------------------------------------------|
  -7h8-----8---------------------------------------------|
  ----9-9---9--------------------------------------------|
  ------------9-9-9-9-9-9-9-9-9-9-9-9--5~--5-55555-5\7-7-|
  ------------9-9-9-9-9-9-9-9-9-9-9-9--5~--5-55555-5\7-7-|
  ------------9-9-9-9-9-9-9-9-9-9-9-9--5~--5-55555-5\7-7-|
PM            ...........

[Solo] - [02:45] - [03:01]
- -------10-----------------------------------10-------------------------|
- -7h8-----8----------------------------7h8-----8------------------------|
- ----9-9---9------------------------------9-9---9-------------------<7>-|
- ----------------11-11-11-----11h12-12------------------------<7><7>----|
- ------------------------12-12--------------------------7h9-9-----------|
- -----------9-9-9---------------------------------7h9-9-----------------|

  ---------------------<12>--------------------------------------------|
  --------7h8-------<7>------------------------------------------------|
  -<7>-------9-9-<5>---------------------------------------------------|
  -------------------------------12-12-12-0-4/5\0-5~-----7/9-----------|
  ----<9>---------------------------------0-------5~---------(7)(7)(7)-|
  --------------------------9-9-9---------0-------5~---------(7)(7)(7)-|

[Fill] - [03:01] - [03:07]
- ----------------------------------------------------------------------|
- ----------------------------------------------------------------------|
- ----------------------------------------------------------------------|
- -9-9---9-9---9-9---9-9--9-9---9-9---9-9---9-9--9-9---9-9---9-9---9-9--|
- -9-10--9-10--9-10--9-9--9-10--9-10--9-10--9-9--9-10--9-10--9-10--9-9--|
- -9-9---9-9---9-9---9-9--9-9---9-9---9-9---9-9--9-9---9-9---9-9---9-9--|
PM .....................................................

  -----------------|
  -----------------|
  -----------------|
  -9-9--9-9--9-9-9-|
  -9-9--9-9--9-9-9-|
  -9-9--9-9--9-9-9-|
                                      |-----This note is held and then
[Bridge 2] - [03:07] - [03:17]        V     some effect makes it come
- -----------------------------------------|  on and off a couple times.
- --3--3------------------------------2~---|
- ----------------------------2--4----2~---|  If you don't have the effect
- ---4--4---2/4-4-4-4/5-4-2----0--2---4~---|  you can just hit it a couple
- -2--2--2-------------------0--0--0--2~---|  of times with rests..up to
- -----------------------------------------|  you.

[Chorus 3] - [03:17] - [03:48]
- ----------------------------------------------------------------------|
- ----------------------------------------------------------------------|
- -------------9\11-11-11-11-11-11-11-11-11-----------------------------|
- -9-999-9-9-9-x-x--x--x--x--x--x--x--x--x--7-777-7-7-7--7-777--7-5--9--|
- -9-999-9-9-9-7\9--9--9--9--9--9--9--9--9--7-777-7-7-7--7-777--7-5--9--|
- -9-999-9-9-9-0-0--0--0--0--0--0--0--0--0--7-777-7-7-7--7-777--7-5--9--|

  ----------------------------------------------------------------------|
  ----------------------------------------------------------------------|
  -------------11-11-11-11-11\12-12-12-12-12----------------------------|
  -999-9-9-9-0-x--x--x--x--x--x--x--x--x--x--7-777-7-7-7--7-777--7-5--9-|
  -999-9-9-9-0-9--9--9--9--9-\10-10-10-10-10-7-777-7-7-7--7-777--7-5--9-|
  -999-9-9-9-0-0--0--0--0--0--0--0--0--0--0--7-777-7-7-7--7-777--7-5--9-|

  ---------------------------------------------------------------------|
  ---------------------------------------------------------------------|
  -----------11-11-11-11-11-11-14-14-14-14-14-14-----------------------|
  999-9-9-9--x--x--x--x--x--x--x--x--x--x--x--x--7-777-7-7-7--7-777--7-|
  999-9-9-9--9--9--9--9--9--9--12-12-12-12-12-12-7-777-7-7-7--7-777--7-|
  999-9-9-9--0--0--0--0--0--0--0--0--0--0--0--0--7-777-7-7-7--7-777--7-|

  -----------------------------------------------------------------------|
  -----------------------------------------------------------------------|
  ---------------------6-6-6-6-6-6-6-6-6-6-6-6-6-6-6-6-11-11-11-11-11-11-|
  -5-------------------x-x-x-x-x-x-x-x-x-x-x-x-x-x-x-x-x--x--x--x--x--x--|
  -5--2~-2/4-5~-5/7-4~-4-4-4-4-4-4-4-4-4-4-4-4-4-4-4-4-9--9--9--9--9--9--|
  -5---------------------------------------------------------------------|

[Outro] - [03:48] - [04:04]
- ---------------------------------------------------------------------|
- ---------------------------------------------------------------------|
- ----------------6-6-6-6-6-6---------------6-6-6-6-6-6----------------|
- -9--9-9-9--9-9--6-6-6-6-6-6--5-5-5-5-5-5--6-6-6-6-6-6--9--9-9-9--9-9-|
- -10-9-9-10-9-9--4-0-0-4-0-0--5-5-5-5-5-5--4-0-0-4-0-0--10-9-9-10-9-9-|
- -9--9-9-9--9-9---------------5-5-5-5-5-5---------------9--9-9-9--9-9-|

  ----------------------------------------------|
  ----------------------------------------------|
  -6-6-6-6-6-6---------------------3-3------6-6-|
  -6-6-6-6-6-6--5-5-5-5-5-5-----4-4------4-4----|
  -4-0-0-4-0-0--5-5-5-5-5-5-----------0-0-------|
  --------------5-5-5-5-5-5--5-5----------------|

[Bass & Drums] - [04:04] - [04:28]

[Symbols Used]

~      Let Ring.
p      Pull Of.
h      Hammer On.
\      Slide Up.
/      Slide Down.
( )    These are Ghost Notes played very quietly.
< >    Numbers in these are Natural Harmonics.
\-     Slide Down and slowly let go so you are not sliding to specific
       number, but until the sound is gone.
/-     Slide Up and slowly let go so you are not sliding to specific
       number, but until the sound is gone.
x      Dead Note - hit this string so it makes very little or no noise.
PM...  Palm Mute the notes with dots(.)under them.

            
            
Suggest correction
Creating personal tab
Creating personal tab
You can edit any tab online and save it as your Personal.

You can edit, replace or remove any tab part or add personal notes – all changes will be seen only by you.

Personal tabs can be accessed anytime from any device, even offline.
Learn more »
comments
print report bad tab
2 comments total.
0 reply
icaneraseit4u 125 Sep 15, 2006 12:51 AM

Well, you're the only one that got the tuning right, for that I'll give you a 5... after I play thought it all

0 reply
triplezero 10 May 22, 2007 07:38 PM

Everything is ok except the outro. It should be something like this:

-------------------------------------------
-------------------------------------------
-------------------------------------------
----9--9-9------7-7-7------5-5-5------7-7-7
----10-9-9------9-7-7------7-5-5------9-7-7
----9--9-9 X2---7-7-7 X2---5-5-5 X2---7-7-7 X2

guest
You may want to rate the tab now too:
select rating
Wanna post a correction for this tab? Suggest correction