Oops, an error
Loading. Please wait.

Kill Caustic tab

version 5
version 5

Whole song

Interactive

by AFI
1,409 views 1 this week
4 commentsread comments
1 2 3 4 5
2 more votes to show rating
add to favorites
×
Save as Personal and add changes to this tab that will be seen only by you. Learn more ›
×
You can save this tab as Personal to edit and correct it or add notes. All changes will be seen only by you. Learn more »
launch autoscroll
font size
0
reset
how to read this tab
guitar tuner
edit
Autoscroll
slow
fast
+/-
esc
set tempo
stop
Band-AFI (a fire inside)
Song-Kill Caustic
Track 2
Album-DECEMBERUNDERGROUND

NOTE: I tabbed this song in a way that you can play with one guitar. So I have some 
vibratos and stuff. Hopefully you will know what parts are dubbed (if you wish to play with someone).

And with that, on with the tab!

KEY:
b=bend
pm-**=palm mute
p=pull-off
x=muted note
~=vibrato


INTRO


|----------------|
|-111111111111---|
|-141414141414---|
|----------------|
|----------------|
|----------------|

VERSE

|--------------------------------------------------------|
|--------------------------------------------------------|
|--------------------------------------------------------|
|-4-4-4444444444-4/5-4-4-4444444444-4/5-4-4444444444-4/5-|
|-4-4-4444444444-4/5-4-4-4444444444-4/5-4-4444444444-4/5-|
|-0-2-2222222222-2/3-0-2-2222222222-2/3-0-2222222222-2/3-|
Pm    **********         **********       **********
|---------------|---------------------------------------|
|---------------|-----------------------2-2-------------|
|---------------|---------------------------2-2-4-1-----|
|-2-2-2-2-2-2-2-|-4-4-4444444444444-4-4-------------4-4-|
|-2-2-2-2-2-2-2-|-4-4~--------------4-4-------------4-4-|
|-0-0-0-0-0-0-0-|-0-2~--------------0-2-------------0-2-|

|------------------------------|
|------------------------------|
|------------------------------|
|-4444444444-4/5-2-2-2-2-2-2-2-|
|-4444444444-4/5-2-2-2-2-2-2-2-|
|-2222222222-2/3-0-0-0-0-0-0-0-|
Pm**********

PRE CHORUS
|---------------------------------------------------|
|---------------------------------------------------|
|------------666666666-88888888-1010101010----------|
|-4~----4444-xxxxxxxxx----------------------4-4-4-4-|
|------------444444444----------------------4-4-4-4-|
|-------------------------------------------2-2-2-2-|


CHORUS
There are two identical ways to play the chorus at the start.


|-------------------------|  |------------------------|
|-------------------------|  |------------------------|
|-------------------------|OR|------------------------|
|-777777777777------------|  |-777777777777-222222222-|
|-777777777777-7777777777-|  |-777777777777-222222222-|
|-555555555555-7777777777-|  |-555555555555-000000000-|

|-------------------------------------------|
|-------------------------------------------|
|-----11--9----------11-9-14141414-16161616-|
|-----11--9--7977-4--11-9-xxxxxxxx-xxxxxxxx-|
|-9/1-9---7--7977-4--9--7-12121212-14141414-|
|-9/1--------5755-2-------------------------|

|-----------------------------|  |------------------------3-4|
|-------------------------9-10|  |---------------------------|
|-----------------------------|OR|---------------------------|
|-777777777777----------------|  |-777777777777-222222222----|
|-777777777777-7777777777-----|  |-777777777777-222222222----|
|-555555555555-7777777777-----|  |-555555555555-000000000----|

|-------------------------|
|-------------------------|
|-----11--9----------11-9-|
|-----11--9--7977-4--11-9-|
|-9/1-9---7--7977-4--9--7-|
|-9/1--------5755-2-------|

Repeat INTRO + VERSE + PRE CHORUS

CHORUS 2

|-------------------------|  |------------------------|
|-------------------------|  |------------------------|
|-------------------------|OR|------------------------|
|-777777777777------------|  |-777777777777-222222222-|
|-777777777777-7777777777-|  |-777777777777-222222222-|
|-555555555555-7777777777-|  |-555555555555-000000000-|

|-------------------------------------------|
|-------------------------------------------|
|-----11--9----------11-9-14141414-16161616-|
|-----11--9--7977-4--11-9-xxxxxxxx-xxxxxxxx-|
|-9/1-9---7--7977-4--9--7-12121212-14141414-|
|-9/1--------5755-2-------------------------|

|-----------------------------|  |------------------------4-5|
|-------------------------9-10|  |---------------------------|
|-----------------------------|OR|---------------------------|
|-777777777777----------------|  |-777777777777-222222222----|
|-777777777777-7777777777-----|  |-777777777777-222222222----|
|-555555555555-7777777777-----|  |-555555555555-000000000----|

|-----------------------------------------------|
|-----------------------------------------------|
|-----11--9----------11-9-14141414-13131313-11~-|
|-----11--9--7977-4--11-9-xxxxxxxx-xxxxxxxx-xx--|
|-9/1-9---7--7977-4--9--7-12121212-11111111-9-~-|
|-9/1--------5755-2-----------------------------|

BRIDGE

|----------------------------------------|
|----------------------------------------|
|------------------------------11-11-----|
|-4---4-44-4-2-4-777-2-2-4-2-4-xx-xx-----|
|-4---4-44-4-2-4-777-2-2-4-2-4-9--9------|
|-2---2-22-2-0-2-555-0-0-2-0-2-----------|
Pm    * **

|-----------------------------------|
|-----------------------------------|
|-----------------------------------|
|-4-2-4-777-2-2-4-2-4-7777-9999-----|
|-4-2-4-777-2-2-4-2-4-7777-9999-----|
|-2-0-2-555-0-0-2-0-2-5555-7777-----|

|----------------------------------------------------------------|
|----------------------------------------------------------------|
|----------------------------------------------------------------|
|-4-4-4-2222-4-2-4-4-4-4-4-2222-2-4-4-4-4-4-2222-2-4444446666777-|
|----------------------------------------------------------------|
|----------------------------------------------------------------|
pm* * * **** * * * * * * * **** *

|-----------------------|
|-----------------------|
|-----------------------|
|-76666777999911111111--|
|-----------------------|
|-----------------------|


|---------------------------------------|
|---------------------------------------|
|---------------------11-11-------------|
|-4-2-4-777-2-2-4-2-4-xx-xx-------------|
|-4-2-4-777-2-2-4-2-4-9--9--------------|
|-2-0-2-555-0-0-2-0-2-------------------|

|------------------------------------------|
|------------------------------------------|
|-------------------------------9--9--9----|
|-4-2-4-777-2-2-4-2-4-7777-9999-9--9--9----|
|-4-2-4-777-2-2-4-2-4-7777-9999-7--7--7----|
|-2-0-2-555-0-0-2-0-2-5555-7777-7--7--7----|
CHORUS 3

|-------------------------|  |------------------------|
|-------------------------|  |------------------------|
|-------------------------|OR|------------------------|
|-777777777777------------|  |-777777777777-222222222-|
|-777777777777-7777777777-|  |-777777777777-222222222-|
|-555555555555-7777777777-|  |-555555555555-000000000-|

|--------------------------------------------------|
|--------------------------------------------------|
|-----11--9----------11-9-14141414-16161616-13-14~-|
|-----11--9--7977-4--11-9-xxxxxxxx-xxxxxxxx-xx-xx--|
|-9/1-9---7--7977-4--9--7-12121212-14141414-11-12~-|
|-9/1--------5755-2--------------------------------|

|-----------------------------|  |------------------------3-4|
|-------------------------9-10|  |---------------------------|
|-----------------------------|OR|---------------------------|
|-777777777777----------------|  |-777777777777-222222222----|
|-777777777777-7777777777-----|  |-777777777777-222222222----|
|-555555555555-7777777777-----|  |-555555555555-000000000----|

|-------------------------|
|-------------------------|
|-----11--9----------11-9-|
|-----11--9--7977-4--11-9-|
|-9/1-9---7--7977-4--9--7-|
|-9/1--------5755-2-------|

OUTRO

|-------------------|
|-111111111111------|
|-141414141414------|
|---------------4-4-|
|---------------4-4-|
|---------------0-2-|

Well that’s it. enjoy!

            
            
Suggest correction
Creating personal tab
Creating personal tab
You can edit any tab online and save it as your Personal.

You can edit, replace or remove any tab part or add personal notes – all changes will be seen only by you.

Personal tabs can be accessed anytime from any device, even offline.
Learn more »
Give kudos to tab author, rate the tab!
1 2 3 4 5
comments
print report bad tab
4 comments total. Showing first comments.
0 reply
ledzepprules09 10 Jul 12, 2006 06:49 AM

You didn't put that it's in Eb so is it right by that, or does it sound right which means it's all a half step sharp?

0 reply
nolifemusician 30 Jul 12, 2006 11:12 AM

yea thats right my bad its half a step down

0 reply
nolifemusician 30 Jul 12, 2006 01:55 PM

one more thing. on the second time u repeat the chorus it goes
|-----------------------------| |------------------------4-5|
|-------------------------9-10| |---------------------------|
|-----------------------------|OR|---------------------------|
|-777777777777----------------| |-777777777777-222222222----|
|-777777777777-7777777777-----| |-777777777777-222222222----|
|-555555555555-7777777777-----| |-555555555555-000000000----|

i forgot to change some of them so that is how all the second times go.

guest
You may want to rate the tab now too:
select rating
Wanna post a correction for this tab? Suggest correction