Oops, an error
Loading. Please wait.

Kiss And Control tab

version 3
version 3

Whole song

Interactive

by AFI
319 views 1 this week
3 commentsread comments
1 2 3 4 5
2 more votes to show rating
add to favorites
×
Save as Personal and add changes to this tab that will be seen only by you. Learn more ›
×
You can save this tab as Personal to edit and correct it or add notes. All changes will be seen only by you. Learn more »
launch autoscroll
font size
0
reset
how to read this tab
guitar tuner
edit
Autoscroll
slow
fast
+/-
esc
set tempo
stop
Author
Difficulty
Band:   AFI
Song:   Kiss and Control
Album:  Decemberunderground
Tuning: Half step flat
Email:  theartofdrowning@comcast.net

Tabbed by Steven Rivera


[Intro] clean tone
|----------------------------------|
|----------------------------------|
|----11-------9-------7--------9---|
|-9----9---7---7---5---5----7---7--|
|----------------------------------|
|----------------------------------|
 Waatch the staaaaaaaars turn you to

|----------------------------------|
|----------------------------------|
|----11-------9-------7--------9---|
|-9----9---7---7---5---5--/-7---7--|
|----------------------------------|
|----------------------------------|
 nothiiiiiinnnng

|---------------------------------------|
|---------------------------------------|
|----12-------11-------14---------12----|
|-9----9---9----9---9-----9----9-----9--|
|---------------------------------------|
|---------------------------------------|
 Now blush and smile as they whisk you

|---------------------------------------------|
|---------------------------------------------|
|----11-12-------12--------14/12----11-11—11--|
|-9-----------9----9—---9-------9----x--x—-x--|
|------------------------------------9--9--9--|
|---------------------------------------------|
awaaaaaaaaaayyyyyyy

Repeat the above boxes but mute the notes on 3rd string
(That would be the G string or Gb in this case) and substitute the last box with this:
|------------------------------------|
|------------------------------------|
|-11-11-11-11-11-11-11-11-9-9-9-9-9--|
|--x—-x—-x—-x—-x—-x—-x—-x-x-x-x-x-x--|
|--9—-9—-9—-9—-9—-9—-9—-9—7-7-7-7-7--|
|------------------------------------|
   Heeeeeeeeeeeeeeeeeeeee eeeerrrre


A need to see…
[Chores] distortion
|-7-----9------10—-5-5-5--5-5-5—5-5-5--7-7-7---9-9--10-|
|-7-----9------10—-5-5-5--5-5-5-5-5-5--7-7-7---9-9--10-|
|-9-9---11-11--12—-5-5-5--7-7-7-7-7-7--9-9-9--11-11-12-|
|-9---7-11---9-12—-7-7-7--7-7-7-7-7-7--9-9-9--11-11-12-|
|-7-----9------10—-7-7-7--5-5-5-5-5-5—-7-7-7—--9-9--10-|
|-7-----9------10—-5-5-5--5-5-5—5-5-5--7-7-7—--9-9--10-|
City lights like     rain  dance and    explode~~~~~~~~~   fall-up-on    de-bu—--tants

|-7-----9-------10—-5-5-5--5-5-5—5-5-5--------------------|
|-7-----9-------10—-5-5-5--5-5-5-5-5-5--------------------|
|-9-9---11-11---12—-5-5-5--7-7-7-7-7-7---9-11-12--9-11-12-|
|-9---7-11----9-12—-7-7-7--7-7-7-7-7-7---x--x—-x—-x--x—-x-|
|-7-----9-------10—-7-7-7--5-5-5-5-5-5—--7--9—10--7--9-10-|
|-7-----9-------10—-5-5-5--5-5-5—5-5-5--------------------|
Reeling from  nights      that~ kiss and  control~~~~~~~~~     all—of-our   brok-en-hearts

[End of chores]

|-7~~~~~~~~12-14-15--|
|-7~~~~~~~~----------|
|-9~~~~~~~~----------|
|-9~~~~~~~~----------|
|-7~~~~~~~~----------|
|-7~~~~~~~~----------|

[Verse]

|--------------------------------------------|
|--------------------------------------------|
|--------------------------------------------|
|-9-9-9-9-9-7-7-7-7-7—5-5-5-5-5-7-7-7-7-7-9--|
|--------------------------------------------|
|--------------------------------------------|
Pm………………………………………………………………………………………………………………
 Velllllvet buuuuuruuurrrrrnssss wrists while

|--------------------------|
|--------------------------|
|--------------------------|
|-9-9-9-9-7-7-7-7-10-10-9--|
|--------------------------|
|--------------------------|
Restraining
Pm………………………………………………………………

You
and
|--------------------------------------|x2
|--------------------------------------|
|-11-11-11-12-12-12-11-11-12-12-12-----|
|----------------------------------12--|
|--------------------------------------|
|--------------------------------------|
 Blluuuuushhhhed   and smiled
 Saiiiiid you would stayyyyyy


|-x-x-7-7-7-7-7-7-7-7-5-5-5-5-5-5-5-5--|
|-x-x-7-7-7-7-7—7-7-7—5-5-5-5-5-5-5-5--|
|-x-x-9-9-9-9-9-9-9-9-7—7-7-7-7-7-7-7--|
|-x-x-9-9-9-9-9-9-9-9-7-7-7-7-7-7-7-7--|
|-x-x-7-7-7-7-7-7-7-7-5-5-5-5-5-5-5-5--|
|-x-x-7-7-7-7-7—7-7-7-5-5-5-5-5-5-5-5--|
     One more time my breath, ill feed you the

|--------------7-7-7-------------------------|
|--------------7-7-7-------------------------|
|-12-12-12—-12—7-7-7—-14-14-14--14-11-11-12--|
|--x—-x--x---x—9-9-9---x—-x—-x—--x—-x—-x--x--|
|-10-10-10—-10—9-9-9—-12-12-12--12--9—-9-10--|
|--------------7-7-7-------------------------|
Sky~~~~~~~~~~~~~~~~~. I will show you how

|-7-7-7-7-7-7-7-7-5-5-5-5-5-5-5-5--|
|-7-7-7-7-7-7-7-7-5-5-5-5-5-5-5-5--|
|-9-9-9-9-9-9-9-9-7-7-7-7-7-7-7-7--|
|-9-9-9-9-9-9-9-9-7-7-7-7-7-7-7-7--|
|-7-7-7-7-7-7-7-7-5-5-5-5-5-5-5-5--|
|-7-7-7-7-7-7-7-7-5-5-5-5-5-5-5-5--|
 Steal the glamour from death and before you

|-7-7-7-7-7-7-7-7-X2|-7-|play the
|-7-7-7-7-7-7-7-7---|-7-|2nd time through
|-7-7-7-7-7-7-7-7---|-7-|much faster
|-9—9-9-9-9-9-9-9---|-9-|
|-9-9-9-9-9-9-9-9---|-9-|
|-7-7-7-7-7-7-7-7---|-7-|
Die~~~~~~~~~~~~~~~~~
~~~~~~~~~~~~~~~~~~~~~~~~
And you should see~~~~~

[Chores2]
|-7-----9------10—-5-5-5--5-5-5—5-5-5--7-7-7---9-9--10-|
|-7-----9------10—-5-5-5--5-5-5-5-5-5--7-7-7---9-9--10-|
|-9-9---11-11--12—-5-5-5--7-7-7-7-7-7--9-9-9--11-11-12-|
|-9---7-11---9-12—-7-7-7--7-7-7-7-7-7--9-9-9--11-11-12-|
|-7-----9------10—-7-7-7--5-5-5-5-5-5—-7-7-7—--9-9--10-|
|-7-----9------10—-5-5-5--5-5-5—5-5-5--7-7-7—--9-9--10-|
City lights like     rain  dance and    explode~~~~~~~~~   fall-up-on    de-bu—--tants

|-7-----9-------10—-5-5-5--5-5-5—5-5-5--------------------|
|-7-----9-------10—-5-5-5--5-5-5-5-5-5--------------------|
|-9-9---11-11---12—-5-5-5--7-7-7-7-7-7---9-11-12--9-11-12-|
|-9---7-11----9-12—-7-7-7--7-7-7-7-7-7---x--x—-x—-x--x—-x-|
|-7-----9-------10—-7-7-7--5-5-5-5-5-5—--7--9—10--7--9-10-|
|-7-----9-------10—-5-5-5--5-5-5—5-5-5--------------------|
Reeling from  nights      that~ kiss and  control~~~~~~~~~     all—of-our   brok-en-hearts

|-7-7-7—-7-7-7—-5-5-5—-5-5-5-|
|-7-7-7—-7-7-7—-5-5-5—-5-5-5-|
|-9-9-9—-9-9-9—-7-7-7—-7-7-7-|
|-9-9-9—-9-9-9--7-7-7—-7-7-7-|
|-7-7-7—-7-7-7—-5-5-5--5-5-5-|
|-7-7-7—-7-7-7—-5-5-5--5-5-5-|
 All~~~~~~our~~ hearts~~~~~~~

|-------------|
|-------------|
|-11h12-14-14-|
|-------------|
|-------------|
|-------------|
All~~~~~~our~~ har~~~arts!
[Solo]

|--------------------------------------|
|--------------------------------------|
|-------2h4p2-4-0-0-7/9^---------------|
|-9—7/2-------—-0-0--------------------|
|---------------0-0------0-0-7-9-10-10-|
|--------------------------------------|
Pm              . .      . .

|---------------------------|
|---------------------------|
|-------2h4p2-4—9-9-9-8-8-8-|
|-9—7/2-------—-------------|
|---------------------------|
|---------------------------|


|--------------------------------------|
|--------------------------------------|
|-------2h4p2-4-0-0-7/9^---------------|
|-9—7/2-------—-0-0--------------------|
|---------------0-0------0-0-7-9-10-10-|
|--------------------------------------|
Pm              . .      . .

|---------------|
|---------------|
|-------2h4p2-4—|
|-9—7/2-------—-|
|---------------|
|---------------|

|-----------------|----------|-------|
|-----------------|----------|-------|
|-12-11—-16-14--17|-17-16-14-|-11-8--|
|-----------------|----------|-------|
|-----------------|----------|-------|
|-----------------|----------|-------|
Play each note, in the 1st and 3rd box, 3 times each.

|-------------------------|
|-------------------------|
|-11h12-11h12-11h12-14~~~-|
|-------------------------|
|-------------------------|
|-------------------------|

|-7-|
|-7-|
|-9-|
|-9-|
|-7-|
|-7-|
We all want to die like movie stars you said
As you jumped from the height of our cutting room floor
While above us glowing exploding our dreams burst in light and death hold me and tell me 
burn like stars, we’ll burn as we fall! Watch as city lights
DANCE FOR US!!!!!
Play this chord about 5 times
Every time you strum turn the
Volume all the way down and then
Slowly turn it up, faster each time.

[Repeat Chorus1] x2

|-7~~-5~~-7-3-5~-7~~~~~-|
|-7~~-5~~-7-3-5~-7~~~~~-|
|-9~~-7~~-9-5-7~-9~~~~~-|
|-9~~-7~~-9-5-7~-9~~~~~-|
|-7~~-5~~-7-3-5~-7~~~~~-|
|-7~~-5~~-7-3-5~-7~~~~~-|


| /  slide up
| \  slide down
| h  hammer-on
| p  pull-off
| ~  let ring
| x  Mute note
| ^  Bend

            
            
Suggest correction
Creating personal tab
Creating personal tab
You can edit any tab online and save it as your Personal.

You can edit, replace or remove any tab part or add personal notes – all changes will be seen only by you.

Personal tabs can be accessed anytime from any device, even offline.
Learn more »
Give kudos to tab author, rate the tab!
1 2 3 4 5
comments
print report bad tab
3 comments total.
0 reply
DownbëloW 102 Jul 18, 2006 11:22 AM

It looks like you spent a lot of time tabbing this song, but why bother, version 1 is just about perfect. This is pretty off.

0 reply
Sombershadows 31 Jul 18, 2006 11:45 AM

eh i had the lyrics in smaller font on the chores so they were fitting so ignore that. I satrted tabing this song before the others were out and its my first tab, that why i put it up, dude that commented.

0 reply
icaneraseit4u 125 Aug 31, 2006 02:04 AM

Since this your first tab, play it in comparison to the one I posted. You'll definantly see differences; you can use that to improve ya skillz

guest
You may want to rate the tab now too:
select rating
Wanna post a correction for this tab? Suggest correction