Oops, an error
Loading. Please wait.

Lower It guitar pro

version 1
version 1

Whole song

Interactive

by AFI
603 views 1 this week
1 commentread comment
1 2 3 4 5
1 last vote to show rating
add to favorites
guitar tuner
Autoscroll
slow
fast
+/-
esc
set tempo
stop
"Lower It"
demo version
Play now

or get full version for Free

×
Get full version now!
Learn and play this song
in Tab Pro
Try for free

or get $10 off Welcome Bonus

Get welcome bonus
Get access to Tab Pro version of “Lower It”!
Tab Pro is a premium guitar tab service, available on PC, Mac, iOS and Android
TRY FOR FREE
To download “Lower It” Guitar Pro tab click button below
Please note that you must have Guitar Pro software installed on your
computer in order to view this file.
Suggest correction
Give kudos to tab author, rate the tab!
1 2 3 4 5
comments
report bad tab
1 comment total.
0 reply
Crackrocker 10 Oct 12, 2009 11:20 AM

Great tab but I think the intro sounds a bit better played like this:

|-----------------------------------------------------|
|-----------------------------------------------------|
|-----------------------------------------------------|
|-7------------3-----------3--3--3-3-3-3-5-5--5-5-5-5-|
|-5-5-5--3-3-3-1--5-3-3-5--1--1--1-1-1-1-3-3--3-3-3-3-|
|---3-3--5-5-5----3-1-1-3-----------------------------|

|-----------------------------------------------------|
|-----------------------------------------------------|
|-----------------------------------------------------|
|-7------------3-----------3--3--3-3-3-3--------------|
|-5-5-5--3-3-3-1--5-3-3-5--1--1--1-1-1-1-3-3--3-3-3-3-|
|---3-3--5-5-5----3-1-1-3----------------1-1--1-1-1-1-|

guest