Oops, an error
Loading. Please wait.

Medicate tab

version 2
version 2

Whole song

Interactive

by AFI
5,221 views 3 this week
no commentswrite comment
1 2 3 4 5
2 more votes to show rating
add to favorites
×
Save as Personal and add changes to this tab that will be seen only by you. Learn more ›
×
You can save this tab as Personal to edit and correct it or add notes. All changes will be seen only by you. Learn more »
launch autoscroll
font size
0
reset
how to read this tab
guitar tuner
backing track
0:00
0:00
edit
Autoscroll
slow
fast
+/-
esc
set tempo
stop
Artist: AFI 
Song: Medicate
Tuning: (half step down)
INTRO: (at first play intro backwards)

eb--------------------------|
Bb--------------------------|
Gb--------------------------|> play
Db----7---10-9-7------------|> 3x
Ab--0---0--------10--10-10--|
Eb--------------------------|

eb--------------------|
Bb--------------------|
Gb---------7h9-9-9----|
Db----7--7------------|
Ab--0--0--------------|
Eb--------------------|

eb--------------------------|
Bb--------------------------|
Gb--------------------------|> play
Db----7---10-9-7------------|> 3x
Ab--0---0--------10--10-10--|
Eb--------------------------|

eb---------------------|
Bb---------------------|
Gb--------7h9-9-9---9--|
Db------------------7--|
Ab--0--0----------0-0--|
Eb---------------------|

GUITAR 2: (comes in while GUITAR 1 is playing intro second time)
-----------------------------------------------------------------|
-----------------------------------------------------------------|
------------------7777777777777777-55555555----------------------|
-7777777777777777-7777777777777777-55555555-55555555-77777777-7\-|
-7777777777777777-5555555555555555-33333333-55555555-77777777-7\-|
-5555555555555555-5555555555555555-33333333-33333333-55555555-5\-|

VERSE
----------------------------------------------------------------|
----------------------------------------------------------------|
------------------------------------7--7-7-7-x-5h7-7-7--7-7-7-7-|
-------7--7-7-7-x-5h7-7-7--7-7-7-7--x--x-x-x-x-x---x-x--x-x-x-x-|
-0-----0--0-0-0-x-0---0-0--0-0-0-0--5--5-5-5-x-5---5-5--5-5-5-5-|
----------------------------------------------------------------|

----------------------------------------------|
-------------8--8-8-8-8-----------------------|
-5--5-5-5-5--x--x-x-x-x---------7h9-9------9--|
-5--5-5-5-5--5--5-5-5-5----------------7-7-7--|
-3--3-3-3-3--------------0-0-0-------------0--|
-3--3-3-3-3-----------------------------------|

----------------------------------------------------------------|
----------------------------------------------------------------|
-------9--9-9-9-x-7h9-9-9--9-9-9-9--7--7-7-7-x-5h7-7-7--7-7-7-7-|
-------7--7-7-7-x-7---7-7--7-7-7-7--x--x-x-x-x-x---x-x--x-x-x-x-|
-------0--0-0-0-x-0---0-0--0-0-0-0--5--5-5-5-x-5---5-5--5-5-5-5-|
----------------------------------------------------------------|

-------------------------------------------------------|
-------------------------------------------------------|
-5--5-5-5-5---------------------------------------5--5-|
-5--5-5-5-5--5--5-5-5-5--5--5-5-5-5--3--3-3-3-3---5--5-|
-3--3-3-3-3--5--5-5-5-5--5--5-5-5-5--3--3-3-3-3---3--3-|
-3--3-3-3-3--3--3-3-3-3--2--2-2-2-2--1--1-1-1-1---3--3-|

PRE-CHORUS
-------------------------------------------------------|
-------------------------------------------------------|
---------5h7-7-------5h7-7--5\----5h7-7--7-7\-x-x-x-x--|
---7\--7--------5\--7-------5\--7--------7-7\-x-x-x-x--|
---7\-----------5\----------3\-----------5-5\-x-x-x-x--|
---5\-----------3\----------3\-----------5-5\-x-x-x-x--|

----------------------------------------------|
----------------------------------------------|
---------5h7-7-------5h7-7--5\----5h7p5----7~-|
---7\--7--------5\--7-------5\--7-------7--7~-|
---7\-----------5\----------3\-------------5~-|
---5\-----------3\----------3\-------------5~-|

CHORUS
LEAD GUITAR:
---------------------------------------------------------------------------|
--------------------------------------10-----------------------------------|
----/9-7-------/9-7p5---7----/9-7--9--10-----/9--7-------/9-9-7-5-7-9----5-|
---------7-7---------------------------------------7-7-----------------7---|
---------------------------------------------------------------------------|
---------------------------------------------------------------------------|
RHYTHM GUITAR:
--------------------------------------------------------------------------------|
--------------------------------------------------------------------------------|
-----------5--5-5-5------------7--7-7-7------------------------7-7-7-7-10101010-|
-7--7-7-7--5--5-5-5--5--5-5-5--7--7-7-7----7--7-7-7--5--5-5-5--7-7-7-7-10101010-|
-7--7-7-7--3--3-3-3--5--5-5-5--5--5-5-5----7--7-7-7--5--5-5-5--5-5-5-5-8-8-8-8--|
-5--5-5-5--3--3-3-3--3--3-3-3--5--5-5-5----5--5-5-5--3--3-3-3--5-5-5-5-8-8-8-8--|

---------------------------|
-10-10-10/13-13-13-13\-----|
-10-10-10/14-14-14-14\-----|
---------------------------|
---------------------------|
---------------------------|

INTRO:
eb--------------------------|
Bb--------------------------|
Gb--------------------------|> play
Db----7---10-9-7------------|> 3x 
Ab--0---0--------10--10-10--|
Eb--------------------------|

eb---------------------|
Bb---------------------|
Gb--------7h9-9-9---9--|
Db------------------7--|
Ab--0--0----------0-0--|
Eb---------------------|

GUITAR 2:
eb-----------12-12-12-12-12-12-12-|
Bb--10-10-10----------------------|
Gb--------------------------------|
Db--------------------------------|
Ab--------------------------------|
Eb--------------------------------|

VERSE:
----------------------------------------------------------------|
----------------------------------------------------------------|
------------------------------------7--7-7-7-x-5h7-7-7--7-7-7-7-|
-------7--7-7-7-x-5h7-7-7--7-7-7-7--x--x-x-x-x-x---x-x--x-x-x-x-|
-0-----0--0-0-0-x-0---0-0--0-0-0-0--5--5-5-5-x-5---5-5--5-5-5-5-|
----------------------------------------------------------------|

----------------------------------------------|
----------------------------------------------|
-5--5-5-5-5---------------------7h9-9------9--|
-5--5-5-5-5--5--5-5-5-5---------------7-7--7--|
-3--3-3-3-3--5--5-5-5-5--0-0-0-------------0--|
-3--3-3-3-3--3--3-3-3-3-----------------------|

----------------------------------------------------------------|
----------------------------------------------------------------|
-------9--9-9-9-x-7h9-9-9--9-9-9-9--7--7-7-7-x-5h7-7-7--7-7-7-7-|
-------7--7-7-7-x-7---7-7--7-7-7-7--x--x-x-x-x-x---x-x--x-x-x-x-|
-0-----0--0-0-0-x-0---0-0--0-0-0-0--5--5-5-5-x-5---5-5--5-5-5-5-|
----------------------------------------------------------------|

-------------------------------------------------------|
-------------------------------------------------------|
-5--5-5-5-5---------------------------------------5--5-|
-5--5-5-5-5--5--5-5-5-5--5--5-5-5-5--3--3-3-3-3---5--5-|
-3--3-3-3-3--5--5-5-5-5--5--5-5-5-5--3--3-3-3-3---3--3-|
-3--3-3-3-3--3--3-3-3-3--2--2-2-2-2--1--1-1-1-1---3--3-|

PRE-CHORUS:
-------------------------------------------------------|
-------------------------------------------------------|
---------5h7-7-------5h7-7--5\----5h7-7--7-7\-x-x-x-x--|
---7\--7--------5\--7-------5\--7--------7-7\-x-x-x-x--|
---7\-----------5\----------3\-----------5-5\-x-x-x-x--|
---5\-----------3\----------3\-----------5-5\-x-x-x-x--|

----------------------------------------------|
----------------------------------------------|
---------5h7-7-------5h7-7--------5h7p5----7~-|
---7\--7--------5\--7-------5\--7-------7--7~-|
---7\-----------5\----------5\-------------5~-|
---5\-----------3\----------2\-------------5~-|

CHORUS: (play 2x)
LEAD GUITAR:
---------------------------------------------------------------------------|
--------------------------------------10-----------------------------------|
----/9-7-------/9-7p5---7----/9-7--9--10-----/9--7-------/9-9-7-5-7-9----5-|
---------7-7---------------------------------------7-7-----------------7---|
---------------------------------------------------------------------------|
---------------------------------------------------------------------------|
RHYTHM GUITAR:
--------------------------------------------------------------------------------|
--------------------------------------------------------------------------------|
-----------5--5-5-5------------7--7-7-7------------------------7-7-7-7-10101010-|
-7--7-7-7--5--5-5-5--5--5-5-5--7--7-7-7----7--7-7-7--5--5-5-5--7-7-7-7-10101010-|
-7--7-7-7--3--3-3-3--5--5-5-5--5--5-5-5----7--7-7-7--5--5-5-5--5-5-5-5-8-8-8-8--|
-5--5-5-5--3--3-3-3--3--3-3-3--5--5-5-5----5--5-5-5--3--3-3-3--5-5-5-5-8-8-8-8--|

-----------------------------------------------------------------------|
-----------------------------------------------------------------------|
-----------5--5-5-5------------7--7-7-7------------------------7-7-7-7-|
-7--7-7-7--5--5-5-5--5--5-5-5--7--7-7-7----7--7-7-7--5--5-5-5--7-7-7-7-|
-7--7-7-7--3--3-3-3--5--5-5-5--5--5-5-5----7--7-7-7--5--5-5-5--5-5-5-5-|
-5--5-5-5--3--3-3-3--3--3-3-3--5--5-5-5----5--5-5-5--3--3-3-3--5-5-5-5-|

---------|
---------|
---------|
-7--7-7\-|
-7--7-7\-|
-5--5-5\-|

BRIDGE: (play 4x)
----12-----12-----12-----12-----12-----12-----12-----12-----12-----12-----12-----12-----|
------13-----13------------13-----13------------13-----13------------13-----13-----13---|
-14-----14-----14-----10-----10-----10------11----11-----11------10----10-----10-----10-|
----------------------------------------------------------------------------------------|
----------------------------------------------------------------------------------------|
----------------------------------------------------------------------------------------|

---------------------------------------------|
---------------------------------------------|
------------1010101010-7-7-7-7-7--5-5-5-5-5--|> play
-7-7-7-7-7--1010101010-7-7-7-7-7--5-5-5-5-5--|> 4x
-7-7-7-7-7--8-8-8-8-8--5-5-5-5-5--3-3-3-3-3--|
-5-5-5-5-5--8-8-8-8-8--5-5-5-5-5--3-3-3-3-3--|

eb--------------------------|
Bb--------------------------|
Gb--------------------------|> play
Db----7---10-9-7------------|> 2x
Ab--0---0--------10--10-10--|
Eb--------------------------|

CHORUS: (play 2x)
LEAD GUITAR:
---------------------------------------------------------------------------|
--------------------------------------10-----------------------------------|
----/9-7-------/9-7p5---7----/9-7--9--10-----/9--7-------/9-9-7-5-7-9----5-|
---------7-7---------------------------------------7-7-----------------7---|
---------------------------------------------------------------------------|
---------------------------------------------------------------------------|
RHYTHM GUITAR:
--------------------------------------------------------------------------------|
--------------------------------------------------------------------------------|
-----------5--5-5-5------------7--7-7-7------------------------7-7-7-7-10101010-|
-7--7-7-7--5--5-5-5--5--5-5-5--7--7-7-7----7--7-7-7--5--5-5-5--7-7-7-7-10101010-|
-7--7-7-7--3--3-3-3--5--5-5-5--5--5-5-5----7--7-7-7--5--5-5-5--5-5-5-5-8-8-8-8--|
-5--5-5-5--3--3-3-3--3--3-3-3--5--5-5-5----5--5-5-5--3--3-3-3--5-5-5-5-8-8-8-8--|

----------|
----------|
-7--9--10-|
-x--x--x--|
-5--7--8--|
----------|

CHORUS:
--------------------------------------------------------------------------------|
--------------------------------------------------------------------------------|
-----------5--5-5-5------------7--7-7-7------------------------7-7-7-7-10101010-|
-7--7-7-7--5--5-5-5--5--5-5-5--7--7-7-7----7--7-7-7--5--5-5-5--7-7-7-7-10101010-|
-7--7-7-7--3--3-3-3--5--5-5-5--5--5-5-5----7--7-7-7--5--5-5-5--5-5-5-5-8-8-8-8--|
-5--5-5-5--3--3-3-3--3--3-3-3--5--5-5-5----5--5-5-5--3--3-3-3--5-5-5-5-8-8-8-8--|

----------------------------------------------------------12p8----12p8-----|
------------------------------------------------------/10------10------10--|
-----------7b9-5~---7-7b9~-7b9r7-5-7b9~------------------------------------|
-9b11-7~---------------------------------7--9--10--------------------------|
---------------------------------------------------------------------------|
---------------------------------------------------------------------------|

------------------------------|
------------------------------|
------------------------------|
-7--0-5-5---------------------|
----------8-8--7-7--8-8---7/--|
------------------------------|


SOLO:
--/17-1717171717----------/19-191919191919--------------13p0-12p0-----------------|
------------------10-12-13--------------------12-13-15-------------10-12-13-10----|
----------------------------------------------------------------------------------|
----------------------------------------------------------------------------------|
----------------------------------------------------------------------------------|
----------------------------------------------------------------------------------|
                           tap harmonic                      tap harmonic
-10------------------------5th17-----------------------------8th20--------------------------------|
-13b15--------------------------5th17/----------------------------8th20/--------------------------|
--------------------------------------------------------------------------------------------------|
-------t12p7p3h7t12p7p3h7---------------t15p10p7h10t15p10p7h10----------10p7p0--10/14p0-10/12p7---|
--------------------------------------------------------------------------------------------------|
--------------------------------------------------------------------------------------------------|

---t12p8p5h8t12p8p5h8t12p8p5h8t12-t15p8p5h8-t17~--|
--------------------------------------------------|
--------------------------------------------------|
--------------------------------------------------|
--------------------------------------------------|
--------------------------------------------------|

------------------------------------|
------------------------------------|
---t9p5p2h5t9p5p2h5-t7p5p2h5t7p5p2~-|
------------------------------------|
------------------------------------|
------------------------------------|

-----------------------------------------------------------------------------------|
-----------------------------------------------------------------------------------|
--------5-7(bend up one step, tap 10th fret while releasing bend)h10p7h10p7/5------|
----5-7-----------------------------------------------------------------------7~---|
--/7-------------------------------------------------------------------------------|
-----------------------------------------------------------------------------------|

OUTRO:
--------------------------------------------|
----6---------------6~----------------------|
-5--7--7-9-10-5-----7~----------------------|
-5--7--x-x-x--5--5--7~----------------------|
-3--5--5-7-8--3--5--5~----------------------|
-3--5---------3--3--5~----------------------|

--------------|
--------------|
-5 / 7--------|
-5 / 7--7~\---|
-3 / 5--7~\---|
-3 / 5--5~\---|


            
            
Suggest correction
Creating personal tab
Creating personal tab
You can edit any tab online and save it as your Personal.

You can edit, replace or remove any tab part or add personal notes – all changes will be seen only by you.

Personal tabs can be accessed anytime from any device, even offline.
Learn more »
Give kudos to tab author, rate the tab!
1 2 3 4 5
comments
print report bad tab
guest
You may want to rate the tab now too:
select rating
Wanna post a correction for this tab? Suggest correction