Oops, an error
Loading. Please wait.
We have an official Miss Murder tab made by UG professional guitarists. Check out the tab »
×
by AFI
5,911 views 1 this week
2 commentsread comments
1 2 3 4 5
x 3
add to favorites
×
Save as Personal and add changes to this tab that will be seen only by you. Learn more ›
×
You can save this tab as Personal to edit and correct it or add notes. All changes will be seen only by you. Learn more »
launch autoscroll
font size
0
reset
guitar tuner
backing track
0:00
0:00
edit
Autoscroll
slow
fast
+/-
esc
set tempo
stop
Author
Difficulty
Stardard Tuning...
__________________________________________________________________________
Into:

Twice...

----------6-----4-------|
----6-----------------4-|
-------4-----2----------|
-4-----------------2----|
__________________________________________________________________________

Chorus:

Thrice... (three times)

----------6-----4-------|
----6-----------------4-|
-------4-----2----------|
-4-----------------2----|

Once...

-------------------|
-------------------|
---------2-4-66-66-|
-0-00-00-----------|
__________________________________________________________________________

[Repeat into here]
__________________________________________________________________________

Verse:

Twice...

-----------4444--------------------------|
------6666------6666-4444-4444-----------|
-------------------------------6666-6666-|
-4444------------------------------------|

Once...

--------------------------------------------------|
--------------------------------------------------|
--------------------------------------------------|
-4-44-44-44-44-44-44-44-42-22-22-22-20-00-00-00-0-|

Once...

---------------------------------------------------|
---------------------------------------------------|
---------------------------------------------------|
-4-44-44-44-44-44-44-44-42-22-22-22-2--------------|
__________________________________________________________________________

[Repeat chorus here]
__________________________________________________________________________

Guitar Solo:

Twice...

-----------4444-6666---------------------|
------6666-----------6666-6666-4444-4444-|
-----------------------------------------|
-4444------------------------------------|
___________________________________________________________________________

Verse 2-esque thingy:
(Slap this part)
Four times...


----------|
---6-6----|
----------|
----------|

Once...

-----------------------------------------------------|
----------------------------------1111-1111----------|
--------------2222-4444------------------------------|
-444444444444-----------2222-2222--------------------|

Once...

--------------------------------------------------|
--------------------------------------------------|
--------------------------------------------------|
-4-44-44-44-44-44-44-44-42-22-22-22-20-00-00-00-0-|

Once...

--------------------------------------------------|
--------------------------------------------------|
--------------------------------------------------|
-4-44-44-44-44-44-44-44-42-22-22-22-22------------|
___________________________________________________________________________

[Repeat Chorus here]
___________________________________________________________________________

Bridge:

Once...

--------------------------------------------------------|
-----------------------------6-6------------------------|
-----6---4---2-------6---4-------------6---4---2-2------|
-4---------------4-----------------4----------------4-4-|

Once...

---------------|
---------------|
---------------|
-4-4-4-4-4-4-4-|

[Repeat riff before last]

--------------------------------------------------------------------------|
--------------------------------------------------------------------------|
--------------------------------------------------------------------------|
-0-00-00-00-00-00-00-00-04-44-44-44-44-44-44-42--4-44-44-44-44-44-44-44-4-|
___________________________________________________________________________

[Repeat Chorus TWICE]
___________________________________________________________________________

Outro (end):

------------|
-6-6--------|  (Don't let these last two notes ring. They're short
------------|    and both end abrubtly after plucking)
------------|
____________________________________________________________________________


And basically... that's the whole song in chronological order. I think I got the timings 
right. Anyway, You should really look at videos of AFI playing this and see the way 
does it to get a good feel of how its played.

Happy Bassing,
MidnightRawker

            
            
Suggest correction
Creating personal tab
Creating personal tab
You can edit any tab online and save it as your Personal.

You can edit, replace or remove any tab part or add personal notes – all changes will be seen only by you.

Personal tabs can be accessed anytime from any device, even offline.
Learn more »
Give kudos to tab author, rate the tab!
1 2 3 4 5
comments
print report bad tab
2 comments total.
0 reply
mhylands 316 Aug 01, 2008 11:59 PM

Rhythms wrong, missing a lot of notes. Good attempt though.

0 reply
Jukka13 41 Sep 05, 2008 03:26 PM

--------------------------------------------------|
--------------------------------------------------|
--------------------------------------------------|
-4-44-44-44-44-44-44-44-42-22-22-22-20-00-00-00-0-|

The 0's should be 6's on the A string!

[=

guest
You may want to rate the tab now too:
select rating
Wanna post a correction for this tab? Suggest correction