Oops, an error
Loading. Please wait.
We have an official Miss Murder tab made by UG professional guitarists. Check out the tab »
×
by AFI
4,924 views 1 this week
3 commentsread comments
1 2 3 4 5
x 4
add to favorites
×
Save as Personal and add changes to this tab that will be seen only by you. Learn more ›
×
You can save this tab as Personal to edit and correct it or add notes. All changes will be seen only by you. Learn more »
launch autoscroll
font size
0
reset
guitar tuner
backing track
0:00
0:00
edit
Autoscroll
slow
fast
+/-
esc
set tempo
stop
Author
Miss Murder - AFI
Album - DECEMBERUNDERGROUND

any questions, email me at xxxmunchxxx666@yahoo.com

Intro
Gb:-----------------|-----------------|
Db:-----7--------12\|----10\-----5----|
Ab:-----------------|-----------------| (repeat previous two bars twice)
Eb:-5-----5/10------|8-------3------3/|

Gb:-----------------|-----------------|-----------------|-----------------|
Db:-----7--------12\|----10\---5---5--|-----7--------12\|----10\---5------|
Ab:-----------------|-----------------|-----------------|-----------------|
Eb:-5-----5/10------|8-------3---3----|-5-----5/10------|8-------3---3-0--|

Gb:-----------------|-----------------|
Db:-----------------|-----------------|
Ab:---------5-5-5-5-|-------7~--------|
Eb:-6-6-6-----------|-3-5~------------|

Verse 1
Gb:---------5555--|---------------|---------------------|-----------5555--|
Db:-7---7---------|-77777—55555 55|555------------------|----777777-------|
Ab:---------------|---------------|----777777-77777-----|-----------------|
Eb:---------------|---------------|------------------555|555--------------|

Gb:---------------|---------------|
Db:-77777-55555555|555-------77-6~|
Ab:---------------|----77777------|
Eb:---------------|---------------|

Gb:-----------------|-----------------|-----------------|-----------------|
Db:-----------------|-----------------|-----------------|-----------------|
Ab:-----------------|-----------------|-----------------|-----------------|
Eb:-5-5-5-5-5-5-5-5-|-5-5-5-5-5-5-5-5-|-3-3-3-3-3-3-3-3-|-0-0-0-0-0-0-033-|

Gb:-----------------|-----------------|-----------------|-----------------|
Db:-----------------|-----------------|-----------------|-----------------|
Ab:-----------------|-----------------|---------555-666-|-7-(mute)--------|
Eb:-5-5-5-5-5-5-5-5-|-5-5-5-5-5-5-5-5-|-3-3-3-3---------|-----------------|

Chorus 1
Gb:-----------------|-----------------|
Db:-----7--------12\|----10\-----5----|
Ab:-----------------|-----------------|
Eb:-5-----5/10------|8-------3------3/|

Gb:-----------------|-----------------|-----------------|-----------------|
Db:-----7--------12\|----10\---5---5--|-----7--------12\|----10\---5------|
Ab:-----------------|-----------------|-----------------|-----------------|
Eb:-5-----5/10------|8-------3---3----|-5-----5/10------|8-------3---3-0--|

Gb:-----------------|-----------------|
Db:-----------------|-----------------|
Ab:---------3-3-5-5-|7-7-7-7-777-777--|
Eb:-1-1-1-1---------|-----------------|

Interlude
Gb:-----------------|---------777-777-|-----------------|-----------------|
Db:---------777-777-|-999-999---------|-999-999-999-999-|-666-666-666-666-|
Ab:-----------------|-----------------|-----------------|-----------------|
Eb:-555-555---------|-----------------|-----------------|-----------------|

Gb:-----------------|---------777-777-|-----------------|-----------------|
Db:---------777-777-|-999-999---------|-999-999-999-999\|-666-645-6-(mute)|
Ab:-----------------|-----------------|-----------------|-----------------|
Eb:-555-555---------|-----------------|-----------------|-----------------|

Verse 2
Gb:-----------------|-----------------|-----------------|-----------------|
Db:-7---7-----------|-7---7-----------|-7---7-----------|-7---7-----------|
Ab:-0---0-(mute)----|-0---0-(mute)----|-0---0-(mute)----|-0---0-(mute)----|
Eb:-----------------|-----------------|-----------------|-----------------|

Gb:-----------------|-----------------|-----------------|-----------------|
Db:-----------------|-----------------|-----------------|-777-777-777-7\--|
Ab:-----------------|---------555-555-|-----------------|-----------------|
Eb:-555-555-555-555-|-777-777---------|-777-777-777-777/|-----------------|

Chorus 2
Gb:-----------------|-----------------|
Db:-----7--------12\|----10\-----5----|
Ab:-----------------|-----------------|
Eb:-5-----5/10------|8-------3------3/|

Gb:-----------------|-----------------|-----------------|-----------------|
Db:-----7--------12\|----10\---5---5--|-----7--------12\|----10\---5------|
Ab:-----------------|-----------------|-----------------|-----------------|
Eb:-5-----5/10------|8-------3---3----|-5-----5/10------|8-------3---3-0--|

Gb:-----------------|-----------------|
Db:-----------------|-----------------|
Ab:---------5-5-5-5-|-------7~--------|
Eb:-6-6-6-----------|-3-5~------------|

Interlude
Gb:-----------------|---------777-777-|-----------------|-----------------|
Db:---------777-777-|-999-999---------|-999-999-999-999-|-666-666-666-666-|
Ab:-----------------|-----------------|-----------------|-----------------|
Eb:-555-555---------|-----------------|-----------------|-----------------|

Gb:-----------------|---------777-777-|-----------------|-----------------|
Db:---------777-777-|-999-999---------|-999-999-999-999\|-666-645-6-(mute)|
Ab:-----------------|-----------------|-----------------|-----------------|
Eb:-555-555---------|-----------------|-----------------|-----------------|

Bridge
Gb:-----------------|-----------------|-----------------|-----------------|
Db:-----------------|-----------------|-----------------|-----------------|
Ab:-----------------|-----------------|-----------------|-----------------|
Eb:-5~~~~~~~~~~~~~~~|~~~~~~~~~~~~~~~~~|~~~~~~~~~~~~~~~~~|~~-------8---8\--|

Gb:-----------------|-----------------|-----------------|-----------------|
Db:-----------------|-----------------|-----------------|-----------------|
Ab:---------7-----7-|-6-----6---------|----------7-----7|-6---6-6---------|
Eb:-5-----5---------|---------8-----8\|-5-5----5--------|---------8---8\--|

Gb:-----------------|-----------------|-----------------|-----------------|
Db:-----------------|-----------------|-----------------|---------7-7-7-7-|
Ab:---------7-----7-|-6-----6---------|-------(mute)----|-----------------|
Eb:-5-----5---------|---------8-8-8\3-|-5---5-----------|---5-5-5---------|

Gb:-----------------|-----------------|-----------------|---------5---5---|
Db:-----------------|-----------------|-----------------|-----5-7---------|
Ab:---------7-7-7-7-|-6-6-6-6---------|---------7-7-7-7-|-6-6-------------|
Eb:-5---5-5---------|---------8-8-8-8-|-5-5-5-5---------|-----------------|

Gb:-----------------|-----------------|-----------------|
Db:-----------------|-----------------|-----------------|
Ab:---------7-7---7-|-6-6---6---------|-----------------|
Eb:-5-5-5-5---------|---------8-8-8\3-|-5---5\----------|

Gb:-----------------|-----------------|-----------------|-----------------|
Db:-----------------|-----------------|-----------------|-----------------|
Ab:-----------------|-777-555-333-----|-----------------|-------------7/--|
Eb:-0-0-0---0-0-0---|-------------333-|-5~~~~~~~~~~~~~~~|~~~~~~-----------|

Gb:-----------------|
Db:-----------------|
Ab:-12~~~~~~~~~~\---|
Eb:-----------------|

Chorus 3
Gb:-----------------|-----------------|
Db:-----7--------12\|----10\-----5----|
Ab:-----------------|-----------------|
Eb:-5-----5/10------|8-------3------3/|

Gb:-----------------|-----------------|-----------------|-----------------|
Db:-----7--------12\|----10\---5---5--|-----7--------12\|----10\---5------|
Ab:-----------------|-----------------|-----------------|-----------------|
Eb:-5-----5/10------|8-------3---3----|-5-----5/10------|8-------3---3-0--|

Gb:-----------------|-----------------|
Db:-----------------|-----------------|
Ab:---------3-3-5-5-|7-7-7-7-777-777--|
Eb:-1-1-1-1---------|-----------------|

Outro Chorus
Gb:-----------------|-----------------|
Db:-----7--------12\|----10\-----5----|
Ab:-----------------|-----------------|
Eb:-5-----5/10------|8-------3------3/|

Gb:-----------------|-----------------|-----------------|-----------------|
Db:-----7--------12\|----10\---5---5--|-----7--------12\|----10\---5------|
Ab:-----------------|-----------------|-----------------|-----------------|
Eb:-5-----5/10------|8-------3---3----|-5-----5/10------|8-------3---3-0--|

Gb:-----------------|-----------------|
Db:-----------------|-----------------|
Ab:---------5-5-5-5-|-------7~--------|
Eb:-6-6-6-----------|-3-5~------------|

Gb:-----------------|-----------------|-----------------|-----------------|
Db:-----7--------12\|----10\---5------|-----------------|-----------------|
Ab:-----------------|-----------------|---------3-3-5-5-|-777-555-333-----|
Eb:-5-----5/10------|8-------3---3-0--|-1-1-1-1---------|-------------333-|

Gb:-----------------|
Db:-----------------|
Ab:-------(mute)----|
Eb:-5---5-----------|

Index:
\ = Slide Down
/ = Slide Up
~ = Vibrato

I got some of this from another tab, its should be pretty accurate now.

and there you have it

enjoy!

xxXMunchXxx

            
            
Suggest correction
Creating personal tab
Creating personal tab
You can edit any tab online and save it as your Personal.

You can edit, replace or remove any tab part or add personal notes – all changes will be seen only by you.

Personal tabs can be accessed anytime from any device, even offline.
Learn more »
comments
print report bad tab
3 comments total.
0 reply
thephoenixseal@ 378 Jul 06, 2009 10:49 AM

lol at least you're honest...it really was obvious that you've taken some parts from another tab but you're right-it really is more accurate ...good job mate :)

-1 reply
thephoenixseal@ 378 Jul 06, 2009 10:51 AM

By the way instead of

Db:-----7--------12\|----10\-----5----|
Ab:-----------------|-----------------|
Eb:-5-----5/10------|8-------3------3/| it sounds better to me like this:

Db:-----7--------12\|----10\-----5----|
Ab:-----------------|-----------------| (
Eb:-5-----5/10------|8-------3------5/|

0 reply
Skerlnik 136 Dec 07, 2009 11:19 AM

It's not too bad, but the ending to your intro and some choruses is rather strange:
Gb:-----------------|-----------------|
Db:-----------------|-----------------|
Ab:---------5-5-5-5-|-------7~--------|
Eb:-6-6-6-----------|-3-5~------------|

Just doesn't sound right at all.

Seems like you've added/or missing things in the bridge too. I'm not harping on you - I appreciate the work!! :)

guest
You may want to rate the tab now too:
select rating
Wanna post a correction for this tab? Suggest correction