Oops, an error
Loading. Please wait.

Pink Eyes bass

by AFI
355 views 1 this week
3 commentsread comments
1 2 3 4 5
2 more votes to show rating
add to favorites
×
Save as Personal and add changes to this tab that will be seen only by you. Learn more ›
×
You can save this tab as Personal to edit and correct it or add notes. All changes will be seen only by you. Learn more »
launch autoscroll
font size
0
reset
guitar tuner
edit
Autoscroll
slow
fast
+/-
esc
set tempo
stop
Author
Difficulty
About this tab version
Listen carefully for the chorus, the bass is very quiet but fast there and I'm not sure if its completely right. The other parts seem to be okay. Any suggestions or corrections are welcomed. Was this info helpful? Yes No
[Intro]

G|----------|
D|----------|
A|----------|
E|----15\---|

G|----------------------------------------------------------------|
D|----------------------------------------------------------------|
A|---------------10-10-10-10-10-10--------------------------------|
E|-7-7-10-7-10-7-------------------7-7-10-7-10-7-3-3-5-5-5-5------|

G|------------------------------------------------------------------------|
D|-------------------------------------12---12-----11---11---11-----------|
A|---------------10-10-10-10-10-10-9-9----9----9-9----9----9----9-9-9-9---|
E|-7-7-10-7-10-7----------------------------------------------------------|

[Verse]
Play it twice

G|----------------------------------------------------------------|    
D|----------------------------------------------------------------|     
A|---------------10-10-10-10-10-10--------------------------------|      
E|-7-7-10-7-10-7-------------------7-7-10-7-10-7-3-3-5-5-5-5------|    

G|------------------------------------------------------------------------| 
D|-------------------------------------12---12-----11---11---11-----------| 
A|---------------10-10-10-10-10-10-9-9----9----9-9----9----9----9-9-9-9---|
E|-7-7-10-7-10-7----------------------------------------------------------| 

Pre-chorus

G|---------------------|
D|--10-9-12-11-10-9-7--|
A|--8--7-10-9--8--7-5--|
E|---------------------|

[Chorus]

G|-----------------------------------------------------------------------------------------|
D|----------------------------------------12-12-11-11-------------------------12-12-11-11--|
A|-----------------------------------------------------------------------------------------|
E|-10-10-10-10-10-10-10-10-10-10-10-10-9-9------------9-9-9-9-9-9-9-9-9-9-9-9--------------|

G|------------------------------------------------------------------------------------------|
D|-----------------------------------------------------------------------------12-12-11-11--|
A|-10-10-10-9-9-9----------------------------10-10-10-9-9-9---------------------------------|
E|----------------10-10-10-7-7-7-7-7-7-7-7-7----------------10-10-10-9-9-9-9-9--------------|

G|-----------------------------------------------------------------------------------------|
D|----------------------------------------12-12-11-11-------------------------12-12-11-11--|
A|-----------------------------------------------------------------------------------------|
E|-10-10-10-10-10-10-10-10-10-10-10-10-9-9------------9-9-9-9-9-9-9-9-9-9-9-9--------------|

G|-------------------------------------------------------------------------------|
D|-------------------------------------------------------------------------------|
A|-10-10-10-9-9-9----------------------------10-10-10-9-9-9/14-14-14-------------|
E|----------------10-10-10-7-7-7-7-7-7-7-7-7-------------------------10-10-10-7--|

Pre-verse

G|----------------------------------------------------------------|
D|----------------------------------------------------------------|
A|---------------10-10-10-10-10-10--------------------------------|
E|-7-7-10-7-10-7-------------------7-7-10-7-10-7-3-3-5-5-5-5------|

G|------------------------------------------------------------------------|
D|-------------------------------------12---12-----11---11---11-----------|
A|---------------10-10-10-10-10-10-9-9----9----9-9----9----9----9-9-9-9---|
E|-7-7-10-7-10-7----------------------------------------------------------|

[Verse]
Play it twice

G|----------------------------------------------------------------|    
D|----------------------------------------------------------------|     
A|---------------10-10-10-10-10-10--------------------------------|      
E|-7-7-10-7-10-7-------------------7-7-10-7-10-7-3-3-5-5-5-5------|    

G|------------------------------------------------------------------------| 
D|-------------------------------------12---12-----11---11---11-----------| 
A|---------------10-10-10-10-10-10-9-9----9----9-9----9----9----9-9-9-9---|
E|-7-7-10-7-10-7----------------------------------------------------------| 

Pre-chorus

G|------------|
D|--10-9-8-7--|
A|--8--7-6-5--|
E|------------|

[Chorus]

G|-----------------------------------------------------------------------------------------|
D|----------------------------------------12-12-11-11-------------------------12-12-11-11--|
A|-----------------------------------------------------------------------------------------|
E|-10-10-10-10-10-10-10-10-10-10-10-10-9-9------------9-9-9-9-9-9-9-9-9-9-9-9--------------|

G|------------------------------------------------------------------------------------------|
D|-----------------------------------------------------------------------------12-12-11-11--|
A|-10-10-10-9-9-9----------------------------10-10-10-9-9-9---------------------------------|
E|----------------10-10-10-7-7-7-7-7-7-7-7-7----------------10-10-10-9-9-9-9-9--------------|

G|-----------------------------------------------------------------------------------------|
D|----------------------------------------12-12-11-11-------------------------12-12-11-11--|
A|-----------------------------------------------------------------------------------------|
E|-10-10-10-10-10-10-10-10-10-10-10-10-9-9------------9-9-9-9-9-9-9-9-9-9-9-9--------------|

G|--------------------------------------------------------------------------------------|
D|--------------------------------------------------------------------------------------|
A|-10-10-10-9-9-9----------------------------10-10-10-9-9-9-----------------------------|
E|----------------10-10-10-7-7-7-7-7-7-7-7-7----------------10-10-10-9-9-9-9-9-9-9-9-9--|

Bridge 
No bass until 2:33

G|---------------------------------------------------------------------------------------------------------|
D|-9-9-9-9-9-9-9-9-9-9-9-9-9-9-9---------------------------------------------------------------------------|
A|---------------------------------------------------------------------------------------------------------|
E|-------------------------------10\--3-3-2-2-5-5-5/7--3-3-2-2-5-5-5\7--3-3-2-2-5-5-5-5-7-7-7-7-7-7-7-7----|

G|---------------------------|
D|---------------------------|
A|-14-14-14-14-14-14-14-14---|
E|---------------------------|

G|-------------|
D|--10-9-12-7--|
A|--8--7-10-5--|
E|-------------|

[Chorus]

G|-----------------------------------------------------------------------------------------|
D|----------------------------------------12-12-11-11-------------------------12-12-11-11--|
A|-----------------------------------------------------------------------------------------|
E|-10-10-10-10-10-10-10-10-10-10-10-10-9-9------------9-9-9-9-9-9-9-9-9-9-9-9--------------|

G|------------------------------------------------------------------------------------------|
D|-----------------------------------------------------------------------------12-12-11-11--|
A|-10-10-10-9-9-9----------------------------10-10-10-9-9-9---------------------------------|
E|----------------10-10-10-7-7-7-7-7-7-7-7-7----------------10-10-10-9-9-9-9-9--------------|

G|-----------------------------------------------------------------------------------------|
D|----------------------------------------12-12-11-11-------------------------12-12-11-11--|
A|-----------------------------------------------------------------------------------------|
E|-10-10-10-10-10-10-10-10-10-10-10-10-9-9------------9-9-9-9-9-9-9-9-9-9-9-9--------------|

G|-------------------------------------------------------------------------------|
D|-------------------------------------------------------------------------------|
A|-10-10-10-9-9-9----------------------------10-10-10-9-9-9/14-14-14-------------|
E|----------------10-10-10-7-7-7-7-7-7-7-7-7-------------------------10-10-10-7--|

End

G|------|
D|--7---|
A|--5---|
E|------|


************************************

| /   Slide up
| \   Slide down

************************************

            
            
Suggest correction
Creating personal tab
Creating personal tab
You can edit any tab online and save it as your Personal.

You can edit, replace or remove any tab part or add personal notes – all changes will be seen only by you.

Personal tabs can be accessed anytime from any device, even offline.
Learn more »
Give kudos to tab author, rate the tab!
1 2 3 4 5
comments
print report bad tab
3 comments total.
0 reply
PabloAriz 10 Jan 25, 2017 07:30 PM

I signed up only to say THANK YOU SO MUCH for this. Great work! I hope to see more The Blood Album songs soon!

+1 reply
CabiKJS0925 333 Jan 27, 2017 09:56 PM

Thanks man! I will tab more bass and (maybe guitar) for Blood Album soon.

0 reply
PabloAriz 10 Jan 30, 2017 05:50 PM

Great! Thank you so much. Can't wait!

guest
You may want to rate the tab now too:
select rating
Wanna post a correction for this tab? Suggest correction