Oops, an error
Loading. Please wait.

Reivers Music tab

version 2
version 2

Whole song

by AFI
142 views 1 this week
no commentswrite comment
1 2 3 4 5
3 more votes to show rating
add to favorites
×
Save as Personal and add changes to this tab that will be seen only by you. Learn more ›
×
You can save this tab as Personal to edit and correct it or add notes. All changes will be seen only by you. Learn more »
launch autoscroll
font size
0
reset
how to read this tab
guitar tuner
edit
Autoscroll
slow
fast
+/-
esc
set tempo
stop
THIS IS THE ACTUAL SONG FOR THOSE OF YOU WHO ARE REALLY INTERESTED IN PLAYING IT!!! 
ENJOY. I am usually 99% accurate. dont believe me, check it out!

|--------------------------------------------------------------------|
|--------------------------------------------------------------------|
|---888888888------6---6--888888888-4-3--888888888---6---6------88---|
|---888888888----8--------888888888-4-4--888888888--8------===8888---|
|---666666666--9-----8----666666666-2-4--666666666-9---8---6666666---|
|---666666666-------------666666666-2-2--666666666---------6666666---|



|----------------------------------------------------------|
|----------------------------------------------------------|
|---888888888------6---6--888888888-4-3--888888888---6---6-|
|---888888888----8--------888888888-4-4--888888888--8------|
|---666666666--9-----8----666666666-2-4--666666666-9---8---|
|---666666666-------------666666666-2-2--666666666---------|




---------------------------6------------|
---------------------------6------------|
66-6-88-8-10-10-10-13-13---7-----11-----|
XX-X-XX-X--X--X--X--X--X---8-----11-11--|
44-4-66-6--8--8--8-11-11-X-8------9-11-X|
-------------------------X-6------9-11-X|



------------------------------------------------------------------|
------------------------------------------------------------------|
-888888888888----11-11-11-11-11-11--------------------------------|
-888888888888-10-11-11-11-11-11-11-11-11-11-11-11-11-999999999999-|
-666666666666--8--9--9--9--9--9--9-11-11-11-11-11-11-999999999999-|
-666666666666-----9--9--9--9--9--9--9--9--9--9--9--9-777777777777-|



-------------------------------|
-------------------------------|
11-----------------13-13-13-13-|
11-11-11-11-11-11--13-13-13-13-|
-9--9--9--9--9--9--11-11-11-11-|
----9--9--9--9--9--------------|



-----------------------------------------------------------------|
-----------------------------------------------------------------|
888888888888----11-11-11-11-11-11--------------------------------|
888888888888-10-11-11-11-11-11-11-11-11-11-11-11-11-999999999999-|
666666666666--8--9--9--9--9--9--9-11-11-11-11-11-11-999999999999-|
666666666666-----9--9--9--9--9--9--9--9--9--9--9--9-777777777777-|



---------------------------------6-6-4-4-2------------------------||
----------------------------------7---6--4------------------------||
PM-----------------------------(8)--------------------------------||
=============---------888888888(8)LET-RING------------------------||
XXXXXXXXXXXXX-88888888888888888(6)-UNDER--------------------------||
6666666666666-66666666666666666(6)--------------------------------||


                                                               *guitar2
|---------------------------------------------------------------*11-^---|
|----------------------------------------------------------------15^-^--|
|---888888888------6---6--888888888-4-3--888888888---6---6-pm---88------|bend
|---888888888----8--------888888888-4-4--888888888--8------===8888------|
|---666666666--9-----8----666666666-2-4--666666666-9---8---6666666------|
|---666666666-------------666666666-2-2--666666666---------6666666------|



|----------------------------------------------------------|
|----------------------------------------------------------|
|---888888888------6---6--888888888-4-3--888888888---6---6-|
|---888888888----8--------888888888-4-4--888888888--8------|
|---666666666--9-----8----666666666-2-4--666666666-9---8---|
|---666666666-------------666666666-2-2--666666666---------|




---------------------------6------------|
---------------------------6------------|
66-6-88-8-10-10-10-13-13---7-----11-----|
XX-X-XX-X--X--X--X--X--X---8-----11-11--|
44-4-66-6--8--8--8-11-11-X-8------9-11-X|
-------------------------X-6------9-11-X|



------------------------------------------------------------------|
------------------------------------------------------------------|
-888888888888----11-11-11-11-11-11--------------------------------|
-888888888888-10-11-11-11-11-11-11-11-11-11-11-11-11-999999999999-|
-666666666666--8--9--9--9--9--9--9-11-11-11-11-11-11-999999999999-|
-666666666666-----9--9--9--9--9--9--9--9--9--9--9--9-777777777777-|



----------------------------------|
----------------------------------|
11-11-11-11-11-11--13-13-13-13-13-|
11-11-11-11-11-11--13-13-13-13-13-|
-9--9--9--9--9--9--11-11-11-11-11-|
-9--9--9--9--9--9-----------------|



-----------------------------------------------------------------|
-----------------------------------------------------------------|
888888888888----11-11-11-11-11-11--------------------------------|
888888888888-10-11-11-11-11-11-11-11-11-11-11-11-11-999999999999-|
666666666666--8--9--9--9--9--9--9-11-11-11-11-11-11-999999999999-|
666666666666-----9--9--9--9--9--9--9--9--9--9--9--9-777777777777-|


---------------|
---------------|
--11-11----1---|3x
--11-11----1---|3x
9--9--9-11-1---|1x
9--9--9-11-1---|1x


------------------------------------------------------------------|
------------------------------------------------------------------|
-888888888888----11-11-11-11-11-11--------------------------------|
-888888888888-10-11-11-11-11-11-11-11-11-11-11-11-11-999999999999-|
-666666666666--8--9--9--9--9--9--9-11-11-11-11-11-11-999999999999-|
-666666666666-----9--9--9--9--9--9--9--9--9--9--9--9-777777777777-|


----------------------------------|
----------------------------------|
11-11-11-11-11-11--13-13-13-13-13-|
11-11-11-11-11-11--13-13-13-13-13-|
-9--9--9--9--9--9--11-11-11-11-11-|
-9--9--9--9--9--9-----------------|


-----------------------------------------------------------------|
-----------------------------------------------------------------|
888888888888----11-11-11-11-11-11--------------------------------|
888888888888-10-11-11-11-11-11-11-11-11-11-11-11-11-999999999999-|
666666666666--8--9--9--9--9--9--9-11-11-11-11-11-11-999999999999-|
666666666666-----9--9--9--9--9--9--9--9--9--9--9--9-777777777777-|


---------------------------------6-6-4-4-2------------------------||
----------------------------------7---6--4------------------------||
PM-----------------------------(8)--------------------------------||
=============---------888888888(8)LET-RING------------------------||
XXXXXXXXXXXXX-88888888888888888(6)-UNDER--------------------------||
6666666666666-66666666666666666(6)--------------------------------||


bridge
---4----4----4---4---4-----------2---2---2------------6---6---6--------|
--2-2--2-2--2-2-2-2-2-2-----------2---2---2------------7---7---7-------|
----------------------------11-3---3---3---3-------8-8--8---8---8--44--|
-------------------------99-11---------------11-11-8---------------444-|
-------------------------99--9---------------11-11-6---------------224-|
-------------------------77--9----------------9--9-6---------------222-|


---2---2---2-----------6---6---6----------2---2---2---------6--6--6---|
----2---2---2-----------7---7---7----------2---2---2---------7--7--7--|
-3---3---3---3-----8-8---8---8---8-44---3---3---3---3-----88--8--8--8-|
-------------------8---------------44-4-------------------8-----------|
----------------44-6---------------22-4----------------44-6-----------|
----------------11-6---------------22-2----------------11-6-----------|


---------2---2---2-------------------------------------------------|
----------2---2---2------------------------------------------------|
--44---3---3---3---3-------------6-----------------11--------------|
--44-4------------------6--6-8-9-x-888888888-------11-11--x--------|
--22-4---------------44-6--x-x-x-4-888888888--------9-11--x--------|
--22-2---------------11-4--4-6-7---666666666--------9--9--x--------|


------------------------------------------------------------------|
------------------------------------------------------------------|
-888888888888----11-11-11-11-11-11--------------------------------|
-888888888888-10-11-11-11-11-11-11-11-11-11-11-11-11-999999999999-|
-666666666666--8--9--9--9--9--9--9-11-11-11-11-11-11-999999999999-|
-666666666666-----9--9--9--9--9--9--9--9--9--9--9--9-777777777777-|


----------------------------------|
----------------------------------|
11-11-11-11-11-11--13-13-13-13-13-|
11-11-11-11-11-11--13-13-13-13-13-|
-9--9--9--9--9--9--11-11-11-11-11-|
-9--9--9--9--9--9-----------------|


-----------------------------------------------------------------|
-----------------------------------------------------------------|
888888888888----11-11-11-11-11-11--------------------------------|
888888888888-10-11-11-11-11-11-11-11-11-11-11-11-11-999999999999-|
666666666666--8--9--9--9--9--9--9-11-11-11-11-11-11-999999999999-|
666666666666-----9--9--9--9--9--9--9--9--9--9--9--9-777777777777-|


---------------|
---------------|
--11-11----1---|3x
--11-11----1---|3x
9--9--9-11-1---|1x
9--9--9-11-1---|1x


------------------------------------------------------------------|
------------------------------------------------------------------|
-888888888888----11-11-11-11-11-11--------------------------------|
-888888888888-10-11-11-11-11-11-11-11-11-11-11-11-11-999999999999-|
-666666666666--8--9--9--9--9--9--9-11-11-11-11-11-11-999999999999-|
-666666666666-----9--9--9--9--9--9--9--9--9--9--9--9-777777777777-|


----------------------------------|
----------------------------------|
11-11-11-11-11-11--13-13-13-13-13-|
11-11-11-11-11-11--13-13-13-13-13-|
-9--9--9--9--9--9--11-11-11-11-11-|
-9--9--9--9--9--9-----------------|


------------------------------------------------------------------|
------------------------------------------------------------------|
-888888888888----11-11-11-11-11-11--------------------------------|
-888888888888-10-11-11-11-11-11-11-11-11-11-11-11-11-999999999999-|
-666666666666--8--9--9--9--9--9--9-11-11-11-11-11-11-999999999999-|
-666666666666-----9--9--9--9--9--9--9--9--9--9--9--9-777777777777-|


--------------------2^6-guit2-----|
--------------------4-------------|
11-11-11-11-11-11--13-guit1-------|
11-11-11-11-11-11--13-------------|
-9--9--9--9--9--9--11-------------|
-9--9--9--9--9--9-----------------|


-------------------------------------------------------------------|
-------------------------------------------------------------------|
--8---10-11------------11-------8---11--------11-11-11-13-13-13----|
--8---10-11---------9--11-------8---11------9-11-11-11-13-13-13----|
--6----8--9---11----9---9-11----6----9--11--9--9--9--9-11-11-11----|
--6----8--9----9----7---9--9----6----9---9--7--9--9--9-------------|


--------------------------------------------------------------------|
--------------------------------------------------------------------|
--8---10-11------------11-------8-10-11-----------------------------|
--8---10-11---------9--11-------8-10-11------9----------------------|
--6----8--9---11----9---9-11----6--8--9--11--9----------------------|
--6----8--9----9----7---9--9----6--8--9---9--7----------------------|

i hope this helped you. this is a great afi song!

            
            
Suggest correction
Creating personal tab
Creating personal tab
You can edit any tab online and save it as your Personal.

You can edit, replace or remove any tab part or add personal notes – all changes will be seen only by you.

Personal tabs can be accessed anytime from any device, even offline.
Learn more »
Give kudos to tab author, rate the tab!
1 2 3 4 5
comments
print report bad tab
guest
Wanna post a correction for this tab? Suggest correction