Oops, an error
Loading. Please wait.

Amor Verdadero chords

version 2
version 2

Whole song

88 views 3 this week
no commentswrite comment
1 2 3 4 5
3 more votes to show rating
add to favorites
×
Save as Personal and add changes to this tab that will be seen only by you. Learn more ›
×
You can save this tab as Personal to edit and correct it or add notes. All changes will be seen only by you. Learn more »
launch autoscroll
font size
0
reset
transpose
0
reset
simplify chords
display chords
guitar tuner
edit
Autoscroll
slow
fast
+/-
esc
set tempo
stop
Author
Difficulty
Strumming
There is no strumming pattern for this song yet. and get +5 IQ
[Intro]
       
                                            Dm C Bb A7          
e|---------------------------------------------------------------------------|
B|---------------------------------------------------------------------------|
G|-----------2------------------------------7-5------------------------------|
D|---------3---0-5-----5-7-----5-----------------8--7------------------------|
A|-0-2-4-5-----------5---0---7----0-2-4-----5-3------------------------------|
E|-----------------3-----------------------------6--5------------------------|

[CHORUS]

   Dm Gm A7     Gm
Guajira, el son te llama
Dm   Gm   A7  Gm
a bailar, a gozar

     Dm          C         Bb       A7
e|---------------------------------------------------------------------------|
B|---3--3-3--3-3-6-5---5-6-8--6-5h3-2----------------------------------------|
G|-2----------------------------------2--------------------------------------|
D|---------------------------------------------------------------------------|
A|---------------------------------------------------------------------------|
E|---------------------------------------------------------------------------|

     Dm          C     Bb          A7
e|-------------------------5-6-5---6-5---------------------------------------|
B|---3--3-3--3-3-6-5---5-8-------8-------------------------------------------|
G|-2-------------------------------------------------------------------------|
D|---------------------------------------------------------------------------|
A|---------------------------------------------------------------------------|
E|---------------------------------------------------------------------------|

   Gm         Dm      E7       A7
e|----------------------------------5----------------------------------------|
B|-8—8-8-8-8-8h6---6-6-5--6h5-----5------------------------------------------|
G|----------------------------7-6--------------------------------------------|
D|---------------------------------------------------------------------------|
A|---------------------------------------------------------------------------|
E|---------------------------------------------------------------------------|

[CHORUS]

   Dm Gm A7     Gm
Guajira, el son te llama
Dm   Gm   A7  Gm
a bailar, a gozar


[VERSE] 

Dm    Gm    A7          Gm
Amigo pida otra copa, caramba,
Dm  Gm      A7        Gm
Que este cantor le convida.
Dm     Gm      A7            Gm
Que aunque a ustedes no le importa
Dm      Gm           A7          Gm
Voy a hacerles la historia de mi vida.

Dm    Gm        A7    Gm
Amé mucho a una mujer
Dm    Gm      A7     Gm
De mi alma la más querida.
Dm     Gm       A7       Gm
Me traicionó la perdida, caramba
Dm  Gm        A7     Gm
Que ingrato y mal proceder.

Dm   Gm        A7    Gm
Ella me hizo beber
Dm   Gm        A7    Gm
Ella me hizo un perdido
Dm   Gm         A7   Gm
A la droga me tiré, amigo mío,
Dm  Gm        A7     Gm
y a la cárcel fui llevado.

Dm   Gm           A7    Gm
Los amigos me olvidaron
Dm      Gm       A7    Gm
Sólo mi madre lloraba
Dm     Gm        A7    Gm
A Dios pedía y rogaba
Dm     Gm         A7    Gm
Que se salvara su hijo.

Dm    Gm         A7  Gm
Recuerden lo que les digo
Dm        Gm        A7    Gm
Que en la prisión y en la cama
Dm           Gm        A7     Gm
Sólo nuestra madre nos ama, caramba,
Dm     Gm      A7      Gm
no hay dinero, no hay amigos
Dm    Gm       A7     Gm
Linda guajira, mi son te llama!
Dm    Gm        A7    Gm

[CHORUS] 

   Dm Gm A7     Gm
Guajira, el son te llama
Dm   Gm   A7  Gm
a bailar, a gozar

   Dm Gm A7     Gm
Guajira, el son te llama
Dm   Gm   A7  Gm
a bailar, a gozar

[PREGON]

Las dos palabras que más
Dm Gm     A7     Gm
Me llenan de regocijo
Dm        Gm       A7    Gm
Es cuando me dicen hijo,    es cuando 
Dm   Gm        A7    Gm
digo Mamá.

[CHORUS]

   Dm Gm A7     Gm
Guajira, el son te llama
Dm   Gm   A7  Gm
a bailar, a gozar

[PREGON]

Dm    Gm       A7   Gm
La madre es un surtidor
Dm      Gm        A7    Gm
De miel que nunca cierra
Dm    Gm       A7    Gm
Es un astro de la tierra
Dm     Gm        A7    Gm
Brilla mucho más que el sol.

[CHORUS]

   Dm Gm A7     Gm
Guajira, el son te llama
Dm   Gm   A7  Gm
a bailar, a gozar

[PREGON]

Dm    Gm        A7   Gm
No le teme a la negrura
Dm  Gm      A7        Gm
Del vicio y todo su espanto.
Dm        Gm         A7    Gm
Pienso en mi madre y su encanto
Dm Gm    A7        Gm
me cubre con su ternura.

[OUTRO]

Dm C Bb A G A Dm

            
            
Suggest correction
Creating personal tab
Creating personal tab
You can edit any tab online and save it as your Personal.

You can edit, replace or remove any tab part or add personal notes – all changes will be seen only by you.

Personal tabs can be accessed anytime from any device, even offline.
Learn more »
Give kudos to tab author, rate the tab!
1 2 3 4 5
comments
print report bad tab
guest
You may want to rate the tab now too:
select rating
Wanna post a correction for this tab? Suggest correction