Oops, an error
Loading. Please wait.

Because I Got High bass

version 4
version 4

Interactive

by Afroman
18,896 views 1 this week
6 commentsread comments
1 2 3 4 5
x 8
add to favorites
×
Save as Personal and add changes to this tab that will be seen only by you. Learn more ›
×
You can save this tab as Personal to edit and correct it or add notes. All changes will be seen only by you. Learn more »
launch autoscroll
font size
0
reset
guitar tuner
edit
Autoscroll
slow
fast
+/-
esc
set tempo
stop
Difficulty
Afroman: Because I Got High

The bass seems to be tuned a little flat or has crappy intonation. This
transcription is overly detailed.  You really get the idea just playing
the 3rd or 4th verse over and over until people tell you to stop.

intro: (roll another blunt...oooh lalala...)
G|----------------------------------------------------------------|
D|6------66-6-------------------------------------6------66-6-----|
A|----------------4------44-4--44-6------66-6---------------------|
E|----------------------------------------------------------------|

G|----------------------------------------------------------------|
D|6------66-6---------------------6---------------6------66-6-----|
A|----------------4------44-4------------66-6---------------------|
E|----------------------------------------------------------------|


1st verse: (clean my room)
G|----------------------------------------------------------------|
D|6------66-6-------------------------------------6------66-6-----|
A|----------------4------44-4--44-6------66-6---------------------|
E|----------------------------------------------------------------|

G|----------------------------------------------------------------|
D|6------66-6---------------------6------6--------6---------------|
A|----------------4------44-4-------------5/6---------------------|
E|------------4---------------------------------------------------|



2nd verse: (go to class)
G|----------------------------------------------------------------|
D|------------------------------------------------6------66-6-----|
A|----------------4------44-4--44-6------66-----------------------|
E|3------33-3-----------------------------------------------------|

G|----------------------------------------------------------------|
D|----------------------------------------------------------------|
A|----------------------------------------------------------------|
E|----------------------------------------------------------------|


3rd verse: (work)
G|----------------------------------------------------------------|
D|----------------------------------------------------------------|
A|----------------4------44-4--44-6------66-6---------------------|
E|3------33-3-------------------------------------3------33-3--33-|

G|----------------------------------------------------------------|
D|----------------------------------------------------------------|
A|----------------4------44-4------------66-6---------------------|
E|3------33-3---------------------3---------------3------33-3-----|


4th verse: (court)
G|----------------------------------------------------------------|
D|----------------------------------------------------------------|
A|----------------4------44-4---4-6------66-6---------------------|
E|3------33-3-------------------------------------3------33-3-----|

G|----------------------------------------------------------------|
D|----------------------------------------------------------------|
A|----------------4------44-4-------------6-----------------------|
E|3------33-3---------------------3--------------33-3-------------|


5th verse: (cops)
G|----------------------------------------------------------------|
D|----------------------------------------------------------------|
A|----------------4------44-4-----6------66-6---------------------|
E|3------33-3-------------------------------------3------33-3-----|

G|----------------------------------------------------------------|
D|----------------------------------------------------------------|
A|----------------4------44-4------------66-6---------------------|
E|3------33-3---------------------3---------------3------33-3-----|


6th verse: (car note)
G|----------------------------------------------------------------|
D|----------------------------------------------------------------|
A|----------------4------44-4-----6------66-6---------------------|
E|3------33-3-------------------------------------3------33-3-----|

G|----------------------------------------------------------------|
D|----------------------------------------------------------------|
A|----------------4------44-4------------66-6---------------------|
E|3------33-3---------------------3---------------3---------------|

and then my kazaa'd version cut out early.

            
            
Suggest correction
Creating personal tab
Creating personal tab
You can edit any tab online and save it as your Personal.

You can edit, replace or remove any tab part or add personal notes – all changes will be seen only by you.

Personal tabs can be accessed anytime from any device, even offline.
Learn more »
comments
print report bad tab
6 comments total. Showing first comments.
0 reply
A+_Tabs 10 Sep 07, 2008 02:53 PM

who ever wrote this they are good

0 reply
JerWhit 10 Nov 26, 2008 12:58 PM

Nice Tab

0 reply
Zapist219 30 Sep 30, 2009 12:49 AM

alright tab some of the notes need to be down a semitone but pretty good

guest
Wanna post a correction for this tab? Suggest correction