Oops, an error
Loading. Please wait.

I Still Love You Julie bass

2,538 views 1 this week
no commentswrite comment
1 2 3 4 5
1 last vote to show rating
add to favorites
×
Save as Personal and add changes to this tab that will be seen only by you. Learn more ›
×
You can save this tab as Personal to edit and correct it or add notes. All changes will be seen only by you. Learn more »
launch autoscroll
font size
0
reset
guitar tuner
edit
Autoscroll
slow
fast
+/-
esc
set tempo
stop
Author
Difficulty
-------------------------------------------------------------------------------
			  I Still Love You Julie - Against Me!
-------------------------------------------------------------------------------

Tabbed By : Will
e-mail: haha yeah ef that

This is a great song...
I didn't see any bass tabs on it so I posted this. The chords oughtta be right so just 
for the rhythm.. the verses are pretty much straight eiths so.. yeah... have fun



Tuning:

Intro
G|---------------------------------------------------------------------------|
D|---------------------------------------------------------------------------|
A|---------------------------------------------------------------------------|
E|5-----0------2---0---------------------------------------------------------|

Verse
G|---------------------------------------------------------------------------|
D|----0-0-4-4-0-0-----0-0-4-4-0-0-----0-0-4-4-0-0-----0-0-4-4-0-0------------|
A|2-2-------------2-2-------------0-0-------------0-0------------------------|
E|---------------------------------------------------------------------------|

G|----0-0-4-4-0-0-----0-0-4-4-0-0-----2-2-6-6-2-2-----2-2-6-6-2-2------------|
D|2-2-------------2-2-------------4-4-------------2-2------------------------|
A|---------------------------------------------------------------------------|
E|---------------------------------------------------------------------------|

Pre-Chorus
G|---------------------------------------------------------------------------|
D|--------------------0-4--4-0-----0-4--4-0----------------------------------|
A|----------------2-2----------2-2-------------------------------------------|
E|3-33-33-5-55-55------------------------------------------------------------|

G|---------------------------------------------------------------------------|
D|--------------------0-4--4-0-----0-4--4-0----------------------------------|
A|----------------2-2----------2-2-------------------------------------------|
E|3-33-33-5-55-55------------------------------------------------------------|

G|--------------------------------------------------------------------------------------|
D|--------------------------------------------------------------------------------------|
A|----------------222222--222222--------------------------------------------------------|
E|3-33-33-5-55-55-----------------555555--555555--555555--555555--3-3333-3-3333---------|

Chorus
G|---------------------------------------------------------------------------|
D|---------------------------------------------------------------------------|
A|2222222222222222-----------------------------------------------------------|
E|----------------55555555555555555555555555555555--3-33-33--3-33-33---------|

Break
G|---------------------------------------------------------------------------|
D|---------------------------------------------------------------------------|
A|222-22-222-22-2------------------------------------------------------------|
E|---------------55-55-555-55-500-00-000-00-02-2-2-2-0-0-0-0-----------------|

G|---------------------------------------------------------------------------|
D|---------------------------------------------------------------------------|
A|---------------------------------------------------------------------------|
E|---------------------------------------------------------------------------|


Intro
Verse
Verse
Pre-Chorus
Chorus
Chorus
Break
Verse
Verse
Pre-Chorus
Chorus
Chorus
End on B minor
| /  slide up
| \  slide down
| h  hammer-on
| p  pull-off
| ~  vibrato
| +  harmonic
| x  Mute note
===============================================================================

            
            
Suggest correction
Creating personal tab
Creating personal tab
You can edit any tab online and save it as your Personal.

You can edit, replace or remove any tab part or add personal notes – all changes will be seen only by you.

Personal tabs can be accessed anytime from any device, even offline.
Learn more »
Give kudos to tab author, rate the tab!
1 2 3 4 5
comments
print report bad tab
guest
You may want to rate the tab now too:
select rating
Wanna post a correction for this tab? Suggest correction