Oops, an error
Loading. Please wait.

I Still Love You Julie tab

version 1
version 1

Whole song

4,716 views 6 this week
no commentswrite comment
1 2 3 4 5
2 more votes to show rating
add to favorites
×
Save as Personal and add changes to this tab that will be seen only by you. Learn more ›
×
You can save this tab as Personal to edit and correct it or add notes. All changes will be seen only by you. Learn more »
launch autoscroll
font size
0
reset
how to read this tab
guitar tuner
edit
Autoscroll
slow
fast
+/-
esc
set tempo
stop
Intro:
e---------------------------------------------------------------------|
b---------------------------------------------------------------------|
g---------------------------------------------------------4-4---------|
d-----------4-4------------------4-4-----------------5--------55------|
a--------5-------5-5--------5---------5-5-----7-7---------------------|
e--7-7-----------------5-5--------------------------------------------|

e-------------------------------------------|
b-------------------------------------------|
g----------6-6-----------------6-6----------|
d--------7------7-7--------7--------7-------|
a--9-9----------------7-7-------------------|
e-------------------------------------------|

Verse
e---------------------------------------------------|
b---------------------------------------------------|
g-----------------------------9------11-----9-------|
d----9------------7----------9------11-----9--------|
a----9------------7----------7-------9------7-------|
e----7------------5---------------------------------|


Just listen to the song for timing and when to insert the intro again with the verse.

Lyrics:


Last night,
A room full, drunk,
Sang along to the songs I never had
The courage to write.
Given the chance
I'd stay in this chorus forever,
Where everything ugly in this world
Is sadly beautiful
In our desperate memories.
No, we're not
Gonna call everyone on their shit tonight,
Even though the half of you won't even smile
The next time we pass on the street.
Maybe somehow
This scam will still save us all...

Still save us all...
Still save us all.
Still save us all...
(Will save us all.)
Still save us all.

Then I saw you
Dancing at a punk rock show
And for a moment
We walked the streets that everyone else
Had given up to 4 AM,
'Cause promises
And spray paint marking
Everywhere we went
And every direction
Only going as far
As we let it.
There's so many things
We try to do truthfully.
By the time it's through with us,
It all falls apart.
Maybe somehow
This scam will still save us all.

Still save us all...
(Will save us all.)
Still save us all.
Still save us all...
(Will save us all.)
Still save us all.

            
            
Suggest correction
Creating personal tab
Creating personal tab
You can edit any tab online and save it as your Personal.

You can edit, replace or remove any tab part or add personal notes – all changes will be seen only by you.

Personal tabs can be accessed anytime from any device, even offline.
Learn more »
Give kudos to tab author, rate the tab!
1 2 3 4 5
comments
print report bad tab
guest
Wanna post a correction for this tab? Suggest correction