Oops, an error
Loading. Please wait.

Osama Bin Laden As The Crucified Christ intro tab

version 1
version 1

Intro

Whole song

466 views 1 this week
1 commentread comment
1 2 3 4 5
1 last vote to show rating
add to favorites
×
Save as Personal and add changes to this tab that will be seen only by you. Learn more ›
×
You can save this tab as Personal to edit and correct it or add notes. All changes will be seen only by you. Learn more »
launch autoscroll
font size
0
reset
how to read this tab
guitar tuner
edit
Autoscroll
slow
fast
+/-
esc
set tempo
stop
Author
This is my first tab, so please correct me if I'm wrong. I just love this song and there's not really another
tab for it, so I thought I'd give it a go.


The first guitar starts off:

e|---------------------------------------------------------------------------|
B|---------------------------------------------------------------------------|
G|---------------------------------------------------------------------------|
D|---------------------------------------------------------------------------|
A|-7-7-7-7-10-7-7-7-5/7-5-5-2-2-2--7-7-7-7-10-10-12-12-14-14-12-12-10--------|
E|-0-0-0-0-0--0-0-0-0---0-0-0-0-0--0-0-0-0-0--0--0--0--0--0--0--0--0---------|

e|---------------------------------------------------------------------------|
B|---------------------------------------------------------------------------|
G|---------------------------------------------------------------------------|
D|---------------------------------------------------------------------------|
A|-14-14-12-12-10-10-7-10-10-10-7-7-5-5-5-7-7-7-10-7-5-2-2-2-2-2-2-----------|
E|-0--0--0--0--0--0--0-0--0--0--0-0-0-0-0-0-0-0-0--0-0-0-0-0-0-0-0-----------|

Then repeats while the other guitar enters:

e|---------------------------------------------------------------------------|
B|---------------------------------------------------------------------------|
G|---------------------------------------------------------------------------|
D|--------------------------------5--7--9----5/7--9--7--5-----5--------------|
A|-5/7---10--7--5--7--5------5/7---------------------------7-----7--7--------|
E|-----------------------7---------------------------------------------------|

That's pretty much it for the chorus as well.

I'll work on this more and try to post the rest of the song.

************************************

| /   Slide up

************************************

            
            
Suggest correction
Creating personal tab
Creating personal tab
You can edit any tab online and save it as your Personal.

You can edit, replace or remove any tab part or add personal notes – all changes will be seen only by you.

Personal tabs can be accessed anytime from any device, even offline.
Learn more »
Give kudos to tab author, rate the tab!
1 2 3 4 5
comments
print report bad tab
1 comment total.
0 reply
HitTheRoad 59 Apr 10, 2016 01:06 PM

Good stuff.

guest
You may want to rate the tab now too:
select rating
Wanna post a correction for this tab? Suggest correction