Oops, an error
Loading. Please wait.

Piss And Vinegar bass

1,456 views 1 this week
3 commentsread comments
1 2 3 4 5
x 6
add to favorites
×
Save as Personal and add changes to this tab that will be seen only by you. Learn more ›
×
You can save this tab as Personal to edit and correct it or add notes. All changes will be seen only by you. Learn more »
launch autoscroll
font size
0
reset
guitar tuner
edit
Autoscroll
slow
fast
+/-
esc
set tempo
stop
Author
Artist: Against Me
Song: Piss and Vinegar
Album: New Wave

I know this is quite long but there 
are quite a few small variations.
Therefore, just play it all the way
through as it is. I hope it’s about right.

I know the timing isn’t perfect….sorry

Please rate

> = play lots of times
\ = slide down

G|-----|
D|-9>\-| 
A|-----|
E|-----|

G|--------------------|
D|--------------------| 
A|-----------7-79-----|
E|-7-77-5-55------7-7-|

G|--------------------|
D|--------------------| 
A|-----------7979-----|
E|-7-77-5555------7-7-|

G|--------------------|
D|-------------7------| 
A|-----------79-9-----|
E|-7-77-5555------7-7-|

G|----------------------|
D|-------------7--99999-|
A|-----------79-9-------| last 5 notes played quicker
E|-7777-5555------------|

(0:21)

G|---------------------|
D|---------------------| 
A|-----------7779------|
E|-7777-5555------7-7--|

G|---------------------|
D|---------------------| 
A|-----------7979------|
E|-7777-5555------7777-|

G|---------------------|
D|---------------------| 
A|-----------7979------|
E|-7777-5555------7777-|

G|----------------------|
D|-------------7--99999-|
A|-----------79-9-------| last 5 notes played quicker
E|-7-77-5555------------|

(0:37)

G|--------------------|
D|--------------------| 
A|----------7777-7979-|
E|-3>-5>-7>-----------|

G|---------------------|
D|---------------------| 
A|-----------7779------|
E|-7-77-5555------7777-|

G|----------------------|
D|----------------99999-| 
A|-----------7-77-------|
E|-7-77-5-55------------|


G|--------------------|
D|--------------------| 
A|-----------7779-----|
E|-7-77-5-55------7-7-|

G|--------------------|
D|--------------------| 
A|-----------7979-----|
E|-7-77-5-55------7-7-|


G|--------------------|
D|--------------------| 
A|-----------7779-----|
E|-7-77-5-55------7-7-|

G|----------------------|
D|-------------7--99999-|
A|-----------79-9-------|
E|-7-77-5555------------|

G|--------------------|
D|--------------------| 
A|----------7777-7979-|
E|-3>-5>-7>-----------|

G|--------------------|
D|--------------------| 
A|-----------7779-----|
E|-7-77-5-55------7-7-|

G|----------------------|
D|----------------99999-|
A|-----------7979-------|
E|-7-77-5555------------|

(1:23)

G|-------------------|
D|-------------------| 
A|-------------------|  x3
E|-3--3-33-55555-00--|

G|--------------------|
D|--------------------| 
A|-----------7779-----|
E|-7-77-5-55------7-7-|

G|----------------------|
D|-------------7--99999-|
A|-----------79-9-------|
E|-7-77-5555------------|

(1:42)

G|-------------------|
D|-------------------| 
A|-------------------|  x3
E|-3--3-33-5555500---|

G|--------------------|
D|--------------------| 
A|-----------7779-----|
E|-7-77-5-55------7-7-|

G|----------------------|
D|----------------99999-|
A|-----------7777-------|
E|-7-77-5555------------|

(2:00)

G|--------------------|
D|--------------------| 
A|-----------7979-----|
E|-7-77-5-55------7-7-|

G|--------------------|
D|-------------7------| 
A|-----------79-9-----|
E|-7-77-5-55------7-7-|

G|--------------------|
D|--------------------| 
A|-----------7979-----|
E|-7-77-5-55------7-7-|

G|--------------------|
D|-------------7------| 
A|-----------79-9-----|
E|-7-77-5-55------7-7-|


End: (2:17)

G|-------------------------------|
D|-------------------------------| 
A|-------------------------77----|
E|-33333333-55556666-77-55---57\-|

            
            
Suggest correction
Creating personal tab
Creating personal tab
You can edit any tab online and save it as your Personal.

You can edit, replace or remove any tab part or add personal notes – all changes will be seen only by you.

Personal tabs can be accessed anytime from any device, even offline.
Learn more »
comments
print report bad tab
3 comments total.
0 reply
royson28 922 May 18, 2008 09:34 PM

good tab mate. just at the end it should be
A|-------------------------77----
E|-33333333-55556666-77-55---57\-
Not much but yeah good tab anyways!

0 reply
choke383 2,255 May 10, 2009 05:15 PM

Hey man, its a good tab, but as someone very perfectionist there are a few place where juss a simple note isn't right. Like at 0:21 le same riff is repeated twrice, and here the second is changed.
The parts where you play 9 on the D string are an octave higher so are a 7 on the E. The part where he does play D|--9 is in the 1:42 part
G|----------------------|
D|----------------99999-|
A|-----------7777-------|
E|-7-77-5555------------|
but is played like this
G|-------------------------------|
D|----------------9999999999999--|
A|-------(0-0-0-0)---------------|
E|7-7-7-7-5-5-5-5----------------|

and if you listen carfully you hear bass when the guitar stops or drum stops, so you notice its continuous. So the main riffs are constructed like this.

G|---------------------------------|
D|---------------------------------|
A|---------------(7-7-7-9)---------|

0 reply
choke383 2,255 May 10, 2009 05:17 PM

G|---------------------------------|
D|---------------------------------|
A|---------------(7-7-7-9)---------|
D|7-7-7-7-5-5-5-5---------7-7-7-0--|

guest
You may want to rate the tab now too:
select rating
Wanna post a correction for this tab? Suggest correction