Oops, an error
Loading. Please wait.

Rebecca bass

version 2
version 2

Whole song

  • Corrected notes and articulations, explicitly writ... Show more
151 views 1 this week
4 commentsread comments
1 2 3 4 5
3 more votes to show rating
add to favorites
×
Save as Personal and add changes to this tab that will be seen only by you. Learn more ›
×
You can save this tab as Personal to edit and correct it or add notes. All changes will be seen only by you. Learn more »
launch autoscroll
font size
0
reset
guitar tuner
edit
Autoscroll
slow
fast
+/-
esc
set tempo
stop
Author
Difficulty
About this tab version
Corrected notes and articulations, explicitly written out timing, redone organization. Was this info helpful? Yes No
ORDER: I V1 C1 INT V2 C2 B C3 O


(drum count-in)

[INTRO]

G|-----------------|-----------------|-----------------|-----------------|
D|-----------------|-----------------|-----------------|-----------------|
A|-0-0-0-0-0-0-0-0-|-5-5-5-5-5-5-5-5-|-0-0-0-0-0-0-0-0-|-7-7-7-7-7-7-7-7-|
E|-----------------|-----------------|-----------------|-----------------|
   1 + 2 + 3 + 4 +   1 + 2 + 3 + 4 +   1 + 2 + 3 + 4 +   1 + 2 + 3 + 4 +

G|-----------------|-----------------|-----------------|-----------------|
D|-----------------|-----------------|-----------------|-----4-4-5-5-6-6-|
A|-0-0-0-0-0-0-0-0-|-5-5-5-5-5-5-5-5-|-0-0-0-0-0-0-0-0-|-7-7-------------|
E|-----------------|-----------------|-----------------|-----------------|
   1 + 2 + 3 + 4 +   1 + 2 + 3 + 4 +   1 + 2 + 3 + 4 +   1 + 2 + 3 + 4 +


[VERSE 1] (0:12)

G|-----------------|-----------------|-----------------|-----------------|
D|-7-7-4---7-7-4---|-7-7-4---7-7-4---|-7-7-4---7-7-4---|-7-7-7-7-7-7-7-7-|
A|-------7-------7-|-------7-------7-|-------7-------7-|-----------------|
E|-----------------|-----------------|-----------------|-----------------|
   1 + 2 + 3 + 4 +   1 + 2 + 3 + 4 +   1 + 2 + 3 + 4 +   1 + 2 + 3 + 4 +

G|-----------------|-----------4-----|-----------------|-----------------|
D|-4-4-4-4-4-4-----|-------4-7---7-4-|-7-7-4---7-7-4---|-7-7-4---7-7-4---|
A|-------------7-7-|-5-5-7-----------|-------7-------7-|-------7-------7-|
E|-----------------|-----------------|-----------------|-----------------|
   1 + 2 + 3 + 4 +   1 + 2 + 3 + 4 +   1 + 2 + 3 + 4 +   1 + 2 + 3 + 4 +

G|-----------------|-----------------|-----------------|-----------------|
D|-4-4-4-4-4-4-----|-----------------|---------4-4-4-4-|-----------------|
A|-------------7-7-|-5-5-5-5-5-5-5-5-|-0-0-0-0---------|-5-5-5-5-5-5-5-5-|
E|-----------------|-----------------|-----------------|-----------------|
   1 + 2 + 3 + 4 +   1 + 2 + 3 + 4 +   1 + 2 + 3 + 4 +   1 + 2 + 3 + 4 +

G|-----------------|----------------------|-------------------------|
D|-----------------|----------------------|-------------------------|
A|-0-0-0-0-7-7-7-7-|-5-5-5-5/12-12-12-12/-|-17-17-17-17-17-17-17-17-|
E|-----------------|----------------------|-------------------------|
   1 + 2 + 3 + 4 +   1 + 2 + 3  +  4   +    1  +  2  +  3  +  4  + 


[CHORUS 1] (0:31)

G|-----------------|-----------------|-----------------|-----------------|
D|-----------------|-----------------|-----------------|-----------------|
A|-0-0-0-0-0-0-0-0-|-0-0-0-0-0-0-0-0-|-0-0-0-0-0-0-0-0-|-0-0-2-2-3-3-4-4-|
E|-----------------|-----------------|-----------------|-----------------|
   1 + 2 + 3 + 4 +   1 + 2 + 3 + 4 +   1 + 2 + 3 + 4 +   1 + 2 + 3 + 4 +

G|-----------------|--------------------|-------------------------|-------------------------|
D|-----------------|--------------------|-12-12-12-12-12-12-12-12-|/16-14----17-------------|
A|-5-5-5-5-5-5-5-5-|-5-5-5-5-5-5-5-5/12-|-------------------------|-------17---/17-14-12----|
E|-----------------|--------------------|-------------------------|----------------------12-|
   1 + 2 + 3 + 4 +   1 + 2 + 3 + 4 +      1  +  2  +  3  +  4  +    1  +  2  +  3  +  4  +


G|-----------------|-----------------|-----------------|-----------------|
D|-----------------|-----------------|-----------------|-----------------|
A|-0-0-0-0-0-0-0-0-|-0-0-0-0-0-0-0-0-|-0-0-0-0-0-0-0-0-|-0-0-2-2-3-3-4-4-|
E|-----------------|-----------------|-----------------|-----------------|
   1 + 2 + 3 + 4 +   1 + 2 + 3 + 4 +   1 + 2 + 3 + 4 +   1 + 2 + 3 + 4 +

G|-----------------|--------------------|-------------------------|-------------------------|
D|-----------------|--------------------|-12-12-12-12-12-12-12-12-|/16-14----17-------------|
A|-5-5-5-5-5-5-5-5-|-5-5-5-5-5-5-5-5/12-|-------------------------|-------17---/17-14-12----|
E|-----------------|--------------------|-------------------------|----------------------12-|
   1 + 2 + 3 + 4 +   1 + 2 + 3 + 4 +      1  +  2  +  3  +  4  +    1  +  2  +  3  +  4  +


[INTERLUDE] (0:52)

G|-----------------|-----------------|-----------------|-----------------|
D|-----------------|-----------------|-----------------|-----------------|
A|-0-0-0-0-0-0-0-0-|-5-5-5-5-5-5-5-5-|-0-0-0-0-0-0-0-0-|-7-7-7-7-7-7-7-7-|
E|-----------------|-----------------|-----------------|-----------------|
   1 + 2 + 3 + 4 +   1 + 2 + 3 + 4 +   1 + 2 + 3 + 4 +   1 + 2 + 3 + 4 +

G|-----------------|-----------------|-----------------|-----------------|
D|-----------------|-----------------|-----------------|-----4-4-5-5-6-6-|
A|-0-0-0-0-0-0-0-0-|-5-5-5-5-5-5-5-5-|-0-0-0-0-0-0-0-0-|-7-7-------------|
E|-----------------|-----------------|-----------------|-----------------|
   1 + 2 + 3 + 4 +   1 + 2 + 3 + 4 +   1 + 2 + 3 + 4 +   1 + 2 + 3 + 4 +


[VERSE 2] (1:03)

G|-----------------|-----------------|-----------------|-----------------|
D|-7-7-4---7-7-4---|-7-7-4---7-7-4---|-7-7-4---7-7-4---|-7-7-7-7-7-7-7-7-|
A|-------7-------7-|-------7-------7-|-------7-------7-|-----------------|
E|-----------------|-----------------|-----------------|-----------------|
   1 + 2 + 3 + 4 +   1 + 2 + 3 + 4 +   1 + 2 + 3 + 4 +   1 + 2 + 3 + 4 +

G|-----------------|-----------4-----|-----------------|-----------------|
D|-4-4-4-4-4-4-----|-------4-7---7-4-|-7-7-4---7-7-4---|-7-7-4---7-7-4---|
A|-------------7-7-|-5-5-7-----------|-------7-------7-|-------7-------7-|
E|-----------------|-----------------|-----------------|-----------------|
   1 + 2 + 3 + 4 +   1 + 2 + 3 + 4 +   1 + 2 + 3 + 4 +   1 + 2 + 3 + 4 +

G|-----------------|-----------------|-----------------|-----------------|
D|-4-4-4-4-4-4-----|-----------------|---------4-4-4-4-|-----------------|
A|-------------7-7-|-5-5-5-5-5-5-5-5-|-0-0-0-0---------|-5-5-5-5-5-5-5-5-|
E|-----------------|-----------------|-----------------|-----------------|
   1 + 2 + 3 + 4 +   1 + 2 + 3 + 4 +   1 + 2 + 3 + 4 +   1 + 2 + 3 + 4 +

G|-----------------|----------------------|-------------------------|
D|-----------------|----------------------|-------------------------|
A|-0-0-0-0-7-7-7-7-|-5-5-5-5/12-12-12-12/-|-17-17-17-17-17-17-17-17-|
E|-----------------|----------------------|-------------------------|
   1 + 2 + 3 + 4 +   1 + 2 + 3  +  4   +    1  +  2  +  3  +  4  + 


[CHORUS 2] (1:22)

G|-----------------|-----------------|-----------------|-----------------|
D|-----------------|-----------------|-----------------|-----------------|
A|-0-0-0-0-0-0-0-0-|-0-0-0-0-0-0-0-0-|-0-0-0-0-0-0-0-0-|-0-0-2-2-3-3-4-4-|
E|-----------------|-----------------|-----------------|-----------------|
   1 + 2 + 3 + 4 +   1 + 2 + 3 + 4 +   1 + 2 + 3 + 4 +   1 + 2 + 3 + 4 +

G|-----------------|--------------------|-------------------------|-------------------------|
D|-----------------|--------------------|-12-12-12-12-12-12-12-12-|/16-14----17-------------|
A|-5-5-5-5-5-5-5-5-|-5-5-5-5-5-5-5-5/12-|-------------------------|-------17---/17-14-12----|
E|-----------------|--------------------|-------------------------|----------------------12-|
   1 + 2 + 3 + 4 +   1 + 2 + 3 + 4 +      1  +  2  +  3  +  4  +    1  +  2  +  3  +  4  +

G|-----------------|-----------------|-----------------|-----------------|
D|-----------------|-----------------|-----------------|-----------------|
A|-0-0-0-0-0-0-0-0-|-0-0-0-0-0-0-0-0-|-0-0-0-0-0-0-0-0-|-0-0-2-2-3-3-4-4-|
E|-----------------|-----------------|-----------------|-----------------|
   1 + 2 + 3 + 4 +   1 + 2 + 3 + 4 +   1 + 2 + 3 + 4 +   1 + 2 + 3 + 4 +

G|-----------------|--------------------|-------------------------|-------------------------|
D|-----------------|--------------------|-12-12-12-12-12-12-12-12-|/16-14----17-------------|
A|-5-5-5-5-5-5-5-5-|-5-5-5-5-5-5-5-5/12-|-------------------------|-------17---/17-14-12----|
E|-----------------|--------------------|-------------------------|----------------------12-|
   1 + 2 + 3 + 4 +   1 + 2 + 3 + 4 +      1  +  2  +  3  +  4  +    1  +  2  +  3  +  4  +


[BRIDGE] (1:43)

G|-----------------|-----------------|-----------------|-----------------|
D|-----------------|-----------------|-----------------|-----4-4-5-5-6-6-|
A|-0---0-0-0-4-5-7-|---7-5-5-4-4-2-2-|-0-0-0-0-2-2-4-5-|---5-------------|
E|-----------------|-----------------|-----------------|-----------------|
   1 + 2 + 3 + 4 +   1 + 2 + 3 + 4 +   1 + 2 + 3 + 4 +   1 + 2 + 3 + 4 +

G|-----------------|-----------------|-----------------|-----------------|
D|-7-7-7-7-7-4-----|-----------------|-----------------|-----------------|
A|-------------4-7-|---7-7-7-7-7-7-7-|-5-5-5-5-5-5-5-5-|-5-5-5-5-5-5-5-5-|
E|-----------------|-----------------|-----------------|-----------------|
   1 + 2 + 3 + 4 +   1 + 2 + 3 + 4 +   1 + 2 + 3 + 4 +   1 + 2 + 3 + 4 +

G|-----------------|-----------------|-----------------|-----------------|
D|-----------------|-----------------|-----------------|-----4-4-5-5-6-6-|
A|-0---0-0-0-4-5-7-|---7-5-5-4-4-2-2-|-0-0-0-0-2-2-4-5-|---5-------------|
E|-----------------|-----------------|-----------------|-----------------|
   1 + 2 + 3 + 4 +   1 + 2 + 3 + 4 +   1 + 2 + 3 + 4 +   1 + 2 + 3 + 4 +

G|-----------------|-----------------|-----------------|-----------------|
D|-7-7-7-7-7-4-----|-----------------|-----------------|-----------------|
A|-------------4-7-|---7-7-7-7-7-7-7-|-5-5-5-5-5-5-5-5-|-5-5-5-5-5-5-5-5-|
E|-----------------|-----------------|-----------------|-----------------|
   1 + 2 + 3 + 4 +   1 + 2 + 3 + 4 +   1 + 2 + 3 + 4 +   1 + 2 + 3 + 4 +


[CHORUS 3] (2:04)

G|-----------------|-----------------|-----------------|-----------------|
D|-----------------|-----------------|-----------------|-----------------|
A|-0-0-0-0-0-0-0-0-|-0-0-0-0-0-0-0-0-|-0-0-0-0-0-0-0-0-|-0-0-2-2-3-3-4-4-|
E|-----------------|-----------------|-----------------|-----------------|
   1 + 2 + 3 + 4 +   1 + 2 + 3 + 4 +   1 + 2 + 3 + 4 +   1 + 2 + 3 + 4 +

G|-----------------|--------------------|-------------------------|-------------------------|
D|-----------------|--------------------|-12-12-12-12-12-12-12-12-|/16-14----17-------------|
A|-5-5-5-5-5-5-5-5-|-5-5-5-5-5-5-5-5/12-|-------------------------|-------17---/17-14-12----|
E|-----------------|--------------------|-------------------------|----------------------12-|
   1 + 2 + 3 + 4 +   1 + 2 + 3 + 4 +      1  +  2  +  3  +  4  +    1  +  2  +  3  +  4  +

G|-----------------|-----------------|-----------------|-----------------|
D|-----------------|-----------------|-----------------|-----------------|
A|-0-0-0-0-0-0-0-0-|-0-0-0-0-0-0-0-0-|-0-0-0-0-0-0-0-0-|-0-0-2-2-3-3-4-4-|
E|-----------------|-----------------|-----------------|-----------------|
   1 + 2 + 3 + 4 +   1 + 2 + 3 + 4 +   1 + 2 + 3 + 4 +   1 + 2 + 3 + 4 +

G|-----------------|--------------------|-------------------------|-------------------------|
D|-----------------|--------------------|-12-12-12-12-12-12-12-12-|/16-14----17-------------|
A|-5-5-5-5-5-5-5-5-|-5-5-5-5-5-5-5-5/12-|-------------------------|-------17---/17-14-12----|
E|-----------------|--------------------|-------------------------|----------------------12-|
   1 + 2 + 3 + 4 +   1 + 2 + 3 + 4 +      1  +  2  +  3  +  4  +    1  +  2  +  3  +  4  +


[OUTRO] (2:25)
                                                         |---3---||---3---| (quarter note triplets)
G|-----------------|-----------------|-----------------|-------------------|
D|-----------------|-----------------|-----------------|-------------------|
A|-0-0-0-0-0-0-4-5-|-7-7-7-7-7-7-7-7-|-5-5-5-5-5-5-5-5-|-5--5--5--5--5--5--|
E|-----------------|-----------------|-----------------|-------------------|
   1 + 2 + 3 + 4 +   1 + 2 + 3 + 4 +   1 + 2 + 3 + 4 +   1 + 2  + 3 + 4  +

G|-----------------|-----------------|-----------------|-----------------|
D|-----------------|-----------------|-----------------|-----------------|
A|-0---------------|-----------------|-----------------|-----------------|
E|-----------------|-----------------|-----------------|-----------------|
   1 + 2 + 3 + 4 +   1 + 2 + 3 + 4 +   1 + 2 + 3 + 4 +   1 + 2 + 3 + 4 +


************************************

| /   Slide up

************************************

            
            
Suggest correction
Creating personal tab
Creating personal tab
You can edit any tab online and save it as your Personal.

You can edit, replace or remove any tab part or add personal notes – all changes will be seen only by you.

Personal tabs can be accessed anytime from any device, even offline.
Learn more »
Give kudos to tab author, rate the tab!
1 2 3 4 5
comments
print report bad tab
4 comments total. Showing first comments.
0 reply
nightrunner_ks 40 Feb 28, 2017 04:13 PM

Interesting. I definitely learned to play this in a different way. I play the verse riff as a pull off pattern: 7-7-5-0 on the A string

0 reply
NeoMvsEu [m] 34,459 Feb 28, 2017 04:31 PM

Interesting indeed; I wrote down what was played on the track, so interesting to hear the different ways people execute by ear :)

I'd encourage you to slow the song down and try the tab against the song, though!

0 reply
nightrunner_ks 40 Feb 28, 2017 04:37 PM

You definitely tabbed it out correctly, I don't disagree. I followed along the root notes of the chord progression really, whereas your tab is exactly was Inge plays.

I think he definitely plays something different live.

guest
You may want to rate the tab now too:
select rating
Wanna post a correction for this tab? Suggest correction