Oops, an error
Loading. Please wait.

Sex With Multiple Partners bass

886 views 3 this week
4 commentsread comments
1 2 3 4 5
2 more votes to show rating
add to favorites
×
Save as Personal and add changes to this tab that will be seen only by you. Learn more ›
×
You can save this tab as Personal to edit and correct it or add notes. All changes will be seen only by you. Learn more »
launch autoscroll
font size
0
reset
guitar tuner
edit
Autoscroll
slow
fast
+/-
esc
set tempo
stop
Author
Difficulty
come in at the drum beat
Intro
G|------------------|
D|------------------|
A|2~--5~--0~--------|
E|------------3~-1~-|

Pre verse
G|------------------------------------------------|
D|--4---4---4---4---7---7---7---7---2---2---2---2-|
A|2---2---2---2---5---5---5---5---0---0---0---0---|
E|------------------------------------------------|

G|----------------|
D|----------------|   x2
A|--5---5---4---4-|
E|3---3---2---2---|

Verse
G|------------------------------------------------------------|
D|-----2-4-2-0-------7-5-4-5-4~-------------------------------|
A|22-5---------4--55------------00-4-5-7-5-4-0----5-------4---|   x2
E|---------------------------------------------33---3--22---2-|

Pre chorus
G|------------------------------------------------|
D|--4---4---4---4---7---7---7---7---2---2---2---2-|
A|2---2---2---2---5---5---5---5---0---0---0---0---|
E|------------------------------------------------|

G|-----------------------------------|
D|-----------------------------------|
A|--5---5----------------------------|
E|3---3----2-2-2-2-2-2-2-2-3-3-3-3-5-|

Chorus
G|------------------------------------------------------|
D|------------------------------------------------------|
A|2--2--2--22--5--5--5--55--0--0--0--00-----------------|   x2
E|--------------------------------------3-3-3-3-2-2-2-2-|

Pre verse x2

Verse x2

Pre chorus x1

Chorus x2

Bridge (alot faster then the rest of the song)
G|---------------|  (let A1 ring out the first time played)
D|---------------|
A|2>----5>-0>-1>-|   x4
E|---3>----------|

G|--------------------------------------------|
D|--------------------------------------------|
A|2>----5>-0>-1>---------------------------2~-|
E|---3>----------2-2-2-2-2-2-2-2-3-3-3-3-5----|

Build up to last chorus
G|--------------------------------|
D|--------------------------------|
A|2-2-2-22-2-2-2-22-2-2-2-22-2222-|
E|--------------------------------|

Chorus till end and finish on A2.

Great song with awesome bass lines. workin on more against me! bass tabs so please rate. 
to know if im doin a good enough job. Any corrections or hints are welcome. Thanks and 
fun!

            
            
Suggest correction
Creating personal tab
Creating personal tab
You can edit any tab online and save it as your Personal.

You can edit, replace or remove any tab part or add personal notes – all changes will be seen only by you.

Personal tabs can be accessed anytime from any device, even offline.
Learn more »
Give kudos to tab author, rate the tab!
1 2 3 4 5
comments
print report bad tab
4 comments total. Showing first comments.
0 reply
Dudeney! 114 Feb 28, 2008 05:19 AM

You are a ****ing Genius!!!!

0 reply
royson28 922 Mar 16, 2008 11:58 PM

Thanks man only been playin for a year and found out about against me about two months ago. cant get enough of them.

0 reply
Dudeney! 114 Apr 24, 2008 06:35 AM

Dude, I think in the Pre-verse's and Pre-chorus's
he actually plays octaves instead of fifths...
ie. like this.
G|--4---4---4---4-|
D|----------------|
A|2---2---2---2---| etc
E|----------------|
What do you think?

guest
You may want to rate the tab now too:
select rating
Wanna post a correction for this tab? Suggest correction