Oops, an error
Loading. Please wait.

Thrash Unreal intro tab

version 1
version 1

Intro

Whole song

Interactive

5,417 views 3 this week
3 commentsread comments
1 2 3 4 5
1 last vote to show rating
add to favorites
×
Save as Personal and add changes to this tab that will be seen only by you. Learn more ›
×
You can save this tab as Personal to edit and correct it or add notes. All changes will be seen only by you. Learn more »
launch autoscroll
font size
0
reset
how to read this tab
guitar tuner
edit
Autoscroll
slow
fast
+/-
esc
set tempo
stop
----------------------------------------------------------------------------
                         Against Me! - Thrash Unreal
                            New Wave - 2007
----------------------------------------------------------------------------

tabbed by: JesseLaceyIsGod
 ilikesubs123@aol.com

This is just the intro, and i'm not even sure if it's totally 100%, but it's the only 
for now, so it's a start.

Guitar 1 - EADGBe (Tom Gabel)

Palm mute all:
e|-------------------------------------------------|
B|-------------------------------------------------|
G|-------------------------------------------------|
D|-3-3-3-3-3-3-3-3-3-3-3-3-3-3-3-3-3-3-3-3-3-3-3-3-|
A|-3-3-3-3-3-3-3-3-3-3-3-3-3-3-3-3-3-3-3-3-3-3-3-3-|
E|-1-1-1-1-1-1-1-1-1-1-1-1-1-1-1-1-1-1-1-1-1-1-1-1-|
   . . . . . . . . . . . . . . . . . . . . . . . .


e|-------------------------------------------------|
B|-------------------------------------------------|
G|-------------------------------------------------|
D|-3-3-3-3-3-3-3-3-3-3-3-3-3-3-3-3-3-3-3-3-3-3-3-3-|
A|-3-3-3-3-3-3-3-3-3-3-3-3-3-3-3-3-3-3-3-3-3-3-3-3-|
E|-1-1-1-1-1-1-1-1-1-1-1-1-1-1-1-1-1-1-1-1-1-1-1-1-|
   . . . . . . . . . . . . . . . . . . . . . . . .
     "If she wants to dance and drink all night..."


e|---------------------------------|
B|---------------------------------|
G|-3-3-3-3-3-3-3-3-3-3-3-3-3-3-3-3-|
D|-3-3-3-3-3-3-3-3-3-3-3-3-3-3-3-3-|
A|-1-1-1-1-1-1-1-1-1-1-1-1-1-1-1-1-|
E|---------------------------------|
   . . . . . . . . . . . . . . . .
   "...then there's no one that can stop her."


e|---------------------------------|
B|---------------------------------|
G|-7-7-7-7-7-7-7-7-7-7-7-7-7-7-7-7-|
D|-7-7-7-7-7-7-7-7-7-7-7-7-7-7-7-7-|
A|-5-5-5-5-5-5-5-5-5-5-5-5-5-5-5-5-|
E|---------------------------------|
   . . . . . . . . . . . . . . . .
    "She’s going until the house lights come up or..."


e|---------------------------------|
B|---------------------------------|
G|-3-3-3-3-3-3-3-3-3-3-3-3-3-3-3-3-|
D|-3-3-3-3-3-3-3-3-3-3-3-3-3-3-3-3-|
A|-1-1-1-1-1-1-1-1-1-1-1-1-1-1-1-1-|
E|---------------------------------|
   . . . . . . . . . . . . . . . .
    "...her stomach spills onto the floor."


e|---------------------------------|
B|---------------------------------|
G|---------------------------------|
D|-3-3-3-3-3-3-3-3-3-3-3-3-3-3-3-3-|
A|-3-3-3-3-3-3-3-3-3-3-3-3-3-3-3-3-|
E|-1-1-1-1-1-1-1-1-1-1-1-1-1-1-1-1-|
   . . . . . . . . . . . . . . . .
     "This night is gonna end..."


e|---------------------------------|
B|---------------------------------|
G|-3-3-3-3-3-3-3-3-3-3-3-3-3-3-3-3-|
D|-3-3-3-3-3-3-3-3-3-3-3-3-3-3-3-3-|
A|-1-1-1-1-1-1-1-1-1-1-1-1-1-1-1-1-|
E|---------------------------------|
   . . . . . . . . . . . . . . . .
   "...when we're damn well ready, for it to be over."


e|---------------------------------|
B|---------------------------------|
G|-7-7-7-7-7-7-7-7-7-7-7-7-7-7-7-7-|
D|-7-7-7-7-7-7-7-7-7-7-7-7-7-7-7-7-|
A|-5-5-5-5-5-5-5-5-5-5-5-5-5-5-5-5-|
E|---------------------------------|
   . . . . . . . . . . . . . . . .
    "Worked all week long now the music is playing..."


e|---------------------------------|
B|---------------------------------|
G|-3-3-3-3-3-3-3-3-3-3-3-3-3-3-3-3-|
D|-3-3-3-3-3-3-3-3-3-3-3-3-3-3-3-3-|
A|-1-1-1-1-1-1-1-1-1-1-1-1-1-1-1-1-|
E|---------------------------------|
   . . . . . . . . . . . . . . . .
    "...on our time."

and that's all i could really get.

hope any of it is able to help.
laterrrrrr.

            
            
Suggest correction
Creating personal tab
Creating personal tab
You can edit any tab online and save it as your Personal.

You can edit, replace or remove any tab part or add personal notes – all changes will be seen only by you.

Personal tabs can be accessed anytime from any device, even offline.
Learn more »
Give kudos to tab author, rate the tab!
1 2 3 4 5
comments
print report bad tab
3 comments total.
0 reply
Les0Paul 51 Oct 06, 2007 03:55 PM

Hey, nice intro, except you forgot the lead guitar. Nice job though. I just posted a tab of this song (full), if you want to check it out could you please and vote for it if you like it. Thanks.

0 reply
JesseLaceyIsGod 684 Oct 08, 2007 05:54 AM

I saw it, and voted for it, it looked about 100% correct.
so good job :]

0 reply
EggNoggy 337 Oct 09, 2007 06:39 PM

That's pretty much the whole song bro, great tab!

guest
You may want to rate the tab now too:
select rating
Wanna post a correction for this tab? Suggest correction