Oops, an error
Loading. Please wait.

Thrash Unreal tab

version 2
version 2

Whole song

Interactive

31,718 views 1 this week
3 commentsread comments
1 2 3 4 5
x 7
add to favorites
×
Save as Personal and add changes to this tab that will be seen only by you. Learn more ›
×
You can save this tab as Personal to edit and correct it or add notes. All changes will be seen only by you. Learn more »
launch autoscroll
font size
0
reset
how to read this tab
guitar tuner
edit
Autoscroll
slow
fast
+/-
esc
set tempo
stop
Author
Difficulty
#----------------------------------PLEASE NOTE---------------------------------#
#This file is the author's own work and represents their interpretation of the #
#song. You may only use this file for private study, scholarship, or research. #
#------------------------------------------------------------------------------#

THRASH UNREAL
As recorded by Against Me!
(From the 2007 Album NEW WAVE)

Transcribed by Whoabot
        

Words and Music by Against Me!
Arranged by Against Me!

Gtr I (E A D G B E) - 'This is probably Tom'
Gtr II (E A D G B E) - 'This is probably James'
Gtr III (E A D G B E) - 'This is a neat effect for James' guitar'

 Intro
  Q=124
  F5
 4/4
  Gtr I
  PM------------------------------------------------------------------|
  E E E E E E E E   E E E E E E E E   E E E E E E E E   E E E E E E E E
|-----------------|-----------------|-----------------|-----------------||
|-----------------|-----------------|-----------------|-----------------||
|-----------------|-----------------|-----------------|-----------------||
|-----------------|-----------------|-----------------|-----------------||
|-3-3-3-3-3-3-3-3-|-3-3-3-3-3-3-3-3-|-3-3-3-3-3-3-3-3-|-3-3-3-3-3-3-3-3-||
|-1-1-1-1-1-1-1-1-|-1-1-1-1-1-1-1-1-|-1-1-1-1-1-1-1-1-|-1-1-1-1-1-1-1-1-||


   Verse
     PM------------------------------------------
     E E   E  E E E E E     E  E E E   E  E E E
||----------------------|-----------------------|
||o---------------------|-----------------------|
||----------------------|-----------------------|
||----------------------|-----------------------|
||o--3-3---3--3-3-3-3-3-|---3--3-3-3---3--3-3-3-|
||---1-1---1--1-1-1-1-1-|---1--1-1-1---1--1-1-1-|
|
|   Gtrs II, III
|    <                                 >
|    Q    +H.              +H         +H
||--13---(13)-----------|-(13)-------(13)-------|
||o---------------------|-----------------------|
||----------------------|-----------------------|
||----------------------|-----------------------|
||o---------------------|-----------------------|
||----------------------|-----------------------|


  Bb5
 -----------------------------------------------------------------|
   E   E    E   E   E   E   E   E      E   E   E   E   E   E   E   E
|----------------------------------|------------------------------------|
|----------------------------------|------------------------------------|
|----------------------------------|------------------------------------|
|--3---3----3---3---3---3---3---3--|---3---3---3---3---3---3---3---3/---|
|--1---1----1---1---1---1---1---1--|---1---1---1---1---1---1---1---1/---|
|-(1)-(1)--(1)-(1)-(1)-(1)-(1)-(1)-|--(1)-(1)-(1)-(1)-(1)-(1)-(1)-(1)/--|
|
|  <                                   >
|  Q       +H.                        +W
|----------------------------------|------------------------------------|
|-13------(13)---------------------|-(13)-------------------------------|
|----------------------------------|------------------------------------|
|----------------------------------|------------------------------------|
|----------------------------------|------------------------------------|
|----------------------------------|------------------------------------|


  D5
   PM-------------------------------------------------------------------
   E   E    E   E   E   E   E   E      E   E   E   E   E   E   E   E
|----------------------------------|-----------------------------------|
|----------------------------------|-----------------------------------|
|----------------------------------|-----------------------------------|
|--7---7----7---7---7---7---7---7--|---7---7---7---7---7---7---7---7\--|
|--5---5----5---5---5---5---5---5--|---5---5---5---5---5---5---5---5\--|
|-(5)-(5)--(5)-(5)-(5)-(5)-(5)-(5)-|--(5)-(5)-(5)-(5)-(5)-(5)-(5)-(5)\-|
|
|  <                                   >
|  Q       +H.                        +W
|-10------(10)---------------------|-(10)------------------------------|
|----------------------------------|-----------------------------------|
|----------------------------------|-----------------------------------|
|----------------------------------|-----------------------------------|
|----------------------------------|-----------------------------------|
|----------------------------------|-----------------------------------|


  Bb5
 -----------------------------------------------------------------|
   E   E    E   E   E   E   E   E      E   E   E   E   E   E   E   E
|----------------------------------|-----------------------------------||
|----------------------------------|----------------------------------o||
|----------------------------------|-----------------------------------||
|--3---3----3---3---3---3---3---3--|---3---3---3---3---3---3---3---3---||
|--1---1----1---1---1---1---1---1--|---1---1---1---1---1---1---1---1--o||
|-(1)-(1)--(1)-(1)-(1)-(1)-(1)-(1)-|--(1)-(1)-(1)-(1)-(1)-(1)-(1)-(1)--||
|
|  <                                   >
|  Q       +H.                        +W
|----------------------------------|-----------------------------------||
|-11------(11)---------------------|-(11)-----------------------------o||
|----------------------------------|-----------------------------------||
|----------------------------------|-----------------------------------||
|----------------------------------|----------------------------------o||
|----------------------------------|-----------------------------------||


 Pre-Chorus
  C5
   E E   E  E E E E E     E  E E E E E E E
|---------------------|--------------------|
|---------------------|--------------------|
|---------------------|---5--5-5-5-5-5-5-5-|
|--5-5---5--5-5-5-5-5-|---5--5-5-5-5-5-5-5-|
|--3-3---3--3-3-3-3-3-|---3--3-3-3-3-3-3-3-|
|---------------------|--------------------|
|
|  <                      >
|  Q    +H.              +W
|---------------------|--------------------|
|-13---(13)-----------|-(13)---------------|
|---------------------|--------------------|
|---------------------|--------------------|
|---------------------|--------------------|
|---------------------|--------------------|


  Bb5
   E E   E  E E E  E  E    Q.        Q.        Q
|-----------------------|---------------------------||
|-----------------------|---------------------------||
|--3-3---3--3-3-3--3--3-|--3---------3---------3----||
|--3-3---3--3-3-3--3--3-|--3---------3---------3----||
|--1-1---1--1-1-1--1--1-|--1---------1---------1----||
|-----------------------|---------------------------||
|
|  <
|  Q    +H         Q       E   E  E  E   E  E  E  E
|-----------------------|---------------------------||
|-11---(11)-------------|---------------------------||
|-----------------10/---|-15--15-15-14--14-14-12-12-||
|------------------x----|--x---x--x--x---x--x--x--x-||
|------------------8/---|-13--13-13-12--12-12-10-10-||
|-----------------------|---------------------------||


 Chorus
  F5
   E E  E E  E E E  E   E  E E  E  E  E  E E
|---------------------|----------------------|
|---------------------|----------------------|
|---------------------|----------------------|
|--3-3--3-3--3-3-3--3-|-3--3-3--3--3--3--3-3-|
|--3-3--3-3--3-3-3--3-|-3--3-3--3--3--3--3-3-|
|--1-1--1-1--1-1-1--1-|-1--1-1--1--1--1--1-1-|
|
|  q    q    Q   E  E   E  q    E  E  E  Q
|---------------------|----------------------|
|---------------------|-----------------10---|
|-10---10---10---9-10-|---10---10-10-12------|
|---------------------|----------------------|
|---------------------|----------------------|
|---------------------|----------------------|


  Bb5
   E   E   E   E   E   E   E   E     E   E   E   E   E   E   E   E
|---------------------------------|---------------------------------|
|---------------------------------|---------------------------------|
|--3---3---3---3---3---3---3---3--|--3---3---3---3---3---3---3---3--|
|--3---3---3---3---3---3---3---3--|--3---3---3---3---3---3---3---3--|
|--1---1---1---1---1---1---1---1--|--1---1---1---1---1---1---1---1--|
|-(1)-(1)-(1)-(1)-(1)-(1)-(1)-(1)-|-(1)-(1)-(1)-(1)-(1)-(1)-(1)-(1)-|
|
|  q       q       Q       E   E     E   q       E   E   E   Q
|---------------------------------|---------------------------------|
|---------------------------------|---------------------------------|
|-10------10------10-------9--10--|-----10------10--10--------------|
|---------------------------------|---------------------12--10------|
|---------------------------------|---------------------------------|
|---------------------------------|---------------------------------|


  D5
   E   E   E   E   E   E   E   E     E   E   E   E   E   E   E   E
|---------------------------------|---------------------------------|
|---------------------------------|---------------------------------|
|--7---7---7---7---7---7---7---7--|--7---7---7---7---7---7---7---7--|
|--7---7---7---7---7---7---7---7--|--7---7---7---7---7---7---7---7--|
|--5---5---5---5---5---5---5---5--|--5---5---5---5---5---5---5---5--|
|-(5)-(5)-(5)-(5)-(5)-(5)-(5)-(5)-|-(5)-(5)-(5)-(5)-(5)-(5)-(5)-(5)-|
|
|  q       q       Q       E   E     E   q       E   E   E   Q
|---------------------------------|---------------------------------|
|---------------------------------|-------------------------10------|
|-10------10------10-------9--10--|-----10------10--10--12----------|
|---------------------------------|---------------------------------|
|---------------------------------|---------------------------------|
|---------------------------------|---------------------------------|


  Bb5
   E   E   E   E   E   E   E   E     E   E   E   E   E   E   E   E
|---------------------------------|---------------------------------||
|---------------------------------|---------------------------------||
|--3---3---3---3---3---3---3---3--|--3---3---3---3---3---3---3---3--||
|--3---3---3---3---3---3---3---3--|--3---3---3---3---3---3---3---3--||
|--1---1---1---1---1---1---1---1--|--1---1---1---1---1---1---1---1--||
|-(1)-(1)-(1)-(1)-(1)-(1)-(1)-(1)-|-(1)-(1)-(1)-(1)-(1)-(1)-(1)-(1)-||
|
|  q       q       Q       E   E     E   q       E   E   E   Q
|---------------------------------|---------------------------------||
|---------------------------------|---------------------------------||
|-10------10------10-------9--10--|-----10------10--10--------------||
|---------------------------------|---------------------12--10------||
|---------------------------------|---------------------------------||
|---------------------------------|---------------------------------||


   Verse
    (F5)
    PM---------------------------------
    E E E E E E E E   E E E E E E E E
||------------------|-----------------|
||o-----------------|-----------------|
||------------------|-----------------|
||------------------|-----------------|
||o-3-3-3-3-3-3-3-3-|-3-3-3-3-3-3-3-3-|
||--1-1-1-0-1-1-1-0-|-1-1-1-0-1-0-1-0-|


  (Bb5)
 ---------------------------------------------------------------|
   E   E   E   E   E   E   E   E     E   E   E   E   E   E   E   E
|---------------------------------|----------------------------------|
|---------------------------------|----------------------------------|
|---------------------------------|----------------------------------|
|--3---3---3---1---3---3---3---1--|--3---3---3---1---3---1---3---1---|
|--1---1---1---1---1---1---1---1--|--1---1---1---1---1---1---1---1---|
|-(1)-(1)-(1)-(1)-(1)-(1)-(1)-(1)-|-(1)-(1)-(1)-(1)-(1)-(1)-(1)-(1)--|


  (D5)
   PM----------------------------------------------------------------
   E   E   E   E   E   E   E   E     E   E   E   E   E   E   E   E
|---------------------------------|---------------------------------|
|---------------------------------|---------------------------------|
|---------------------------------|---------------------------------|
|--7---7---7---5---7---7---7---5--|--7---7---7---5---7---5---7---5--|
|--5---5---5---5---5---5---5---5--|--5---5---5---5---5---5---5---5--|
|-(5)-(5)-(5)-(5)-(5)-(5)-(5)-(5)-|-(5)-(5)-(5)-(5)-(5)-(5)-(5)-(5)-|


  (Bb5)
 ---------------------------------------------------------------|
   E   E   E   E   E   E   E   E     E   E   E   E   E   E   E   E
|---------------------------------|----------------------------------||
|---------------------------------|---------------------------------o||
|---------------------------------|----------------------------------||
|--3---3---3---1---3---3---3---1--|--3---3---3---1---3---1---3---0---||
|--1---1---1---1---1---1---1---1--|--1---1---1---1---1---1---1---0--o||
|-(1)-(1)-(1)-(1)-(1)-(1)-(1)-(1)-|-(1)-(1)-(1)-(1)-(1)-(1)-(1)-(0)--||


 Pre-Chorus
  D5                                  (Bb5)
  E E E E E E E E   E E E E E E E E   E E E E E E E E   E E E E E E E E
|-----------------|-----------------|-----------------|-----------------|
|-----------------|-----------------|-----------------|-----------------|
|-7-7-7-7-7-7-7-7-|-7-7-7-7-7-7-7-7-|-3-3-3-3-3-3-3-3-|-3-3-3-3-3-3-3-3-|
|-7-7-7-7-7-7-7-7-|-7-7-7-7-7-7-7-7-|-3-3-3-3-3-3-3-3-|-3-3-3-3-3-3-3-3-|
|-5-5-5-5-5-5-5-5-|-5-5-5-5-5-5-5-5-|-1-1-1-1-1-1-1-1-|-1-1-1-1-1-0-1-0-|
|-----------------|-----------------|-----------------|-----------------|


  F5                                  Bb5
  E E E E E E E E   E E E E E E E E   E E E E E E E E   E E E E E E E E
|-----------------|-----------------|-----------------|-----------------|
|-----------------|-----------------|-----------------|-----------------|
|-----------------|-----------------|-3-3-3-3-3-3-3-3-|-3-3-3-3-3-3-3-3-|
|-3-3-3-3-3-3-3-3-|-3-3-3-3-3-3-3-3-|-3-3-3-3-3-3-3-3-|-3-3-3-3-3-3-3-3-|
|-3-3-3-3-3-3-3-3-|-3-3-3-3-3-3-3-3-|-1-1-1-1-1-1-1-1-|-1-1-1-1-1-1-1-1-|
|-1-1-1-1-1-1-1-1-|-1-1-1-1-1-1-1-1-|-----------------|-----------------|


  C5
  E E E E E E E E   E E E E E E E E
|-----------------|-----------------|
|-----------------|-----------------|
|-----------------|-----------------|
|-5-5-5-5-5-5-5-5-|-5-5-5-5-5-5-5-5-|
|-3-3-3-3-3-3-3-3-|-3-3-3-3-3-3-3-3-|
|-----------------|-----------------|
|
| Gtrs II, III
| W                 W
|-----------------|-----------------|
|-----------------|-----------------|
|-----------------|-----------------|
|-----------------|-----------------|
|-----------------|-----------------|
|-----------------|-----------------|


  Bb5
  E  E E E E E  E  E    Q.        Q.        Q
|--------------------|---------------------------||
|--------------------|---------------------------||
|-3--3-3-3-3-3--3--3-|--3---------3---------3----||
|-3--3-3-3-3-3--3--3-|--3---------3---------3----||
|-1--1-1-1-1-1--1--1-|--1---------1---------1----||
|--------------------|---------------------------||
|
| H.            Q       E   E  E  E   E  E  E  E
|--------------------|---------------------------||
|--------------------|---------------------------||
|--------------10/---|-15--15-15-14--14-14-12-12-||
|---------------x----|--x---x--x--x---x--x--x--x-||
|---------------8/---|-13--13-13-12--12-12-10-10-||
|--------------------|---------------------------||


   Chorus
    F
     E   E   E   E   E   E   E   E     E   E   E   E   E   E   E   E
||----------------------------------|---------------------------------|
||o---------------------------------|---------------------------------|
||--(2)-(2)-(2)-(2)-(2)-(2)-(2)-(2)-|-(2)-(2)-(2)-(2)-(2)-(2)-(2)-(2)-|
||---3---3---3---3---3---3---3---3--|--3---3---3---3---3---3---3---3--|
||o--3---3---3---3---3---3---3---3--|--3---3---3---3---3---3---3---3--|
||---1---1---1---1---1---1---1---1--|--1---1---1---1---1---1---1---1--|
|
|    q       q       Q       E   E     E   q       E   E   E   Q
||----------------------------------|---------------------------------|
||o---------------------------------|-------------------------10------|
||--10------10------10-------9--10--|-----10------10--10--12----------|
||----------------------------------|---------------------------------|
||o---------------------------------|---------------------------------|
||----------------------------------|---------------------------------|


  Bb5
   E   E   E   E   E   E   E   E     E   E   E   E   E   E   E   E
|---------------------------------|----------------------------------|
|---------------------------------|----------------------------------|
|--3---3---3---3---3---3---3---3--|--3---3---3---3---3---3---3---3---|
|--3---3---3---3---3---3---3---3--|--3---3---3---3---3---3---3---3---|
|--1---1---1---1---1---1---1---1--|--1---1---1---1---1---1---1---1---|
|-(1)-(1)-(1)-(1)-(1)-(1)-(1)-(1)-|-(1)-(1)-(1)-(1)-(1)-(1)-(1)-(1)--|
|
|  q       q       Q       E   E     E   q       E   E   E   Q
|---------------------------------|----------------------------------|
|---------------------------------|----------------------------------|
|-10------10------10-------9--10--|-----10------10--10---------------|
|---------------------------------|---------------------12--10-------|
|---------------------------------|----------------------------------|
|---------------------------------|----------------------------------|


  Dm
   E   E   E   E   E   E   E   E     E   E   E   E   E   E   E   E
|---------------------------------|---------------------------------|
|--6---6---6---6---6---6---6---6--|--6---6---6---6---6---6---6---6--|
|--7---7---7---7---7---7---7---7--|--7---7---7---7---7---7---7---7--|
|--7---7---7---7---7---7---7---7--|--7---7---7---7---7---7---7---7--|
|--5---5---5---5---5---5---5---5--|--5---5---5---5---5---5---5---5--|
|-(5)-(5)-(5)-(5)-(5)-(5)-(5)-(5)-|-(5)-(5)-(5)-(5)-(5)-(5)-(5)-(5)-|
|
|  q       q       Q       E   E     E   q       E   E   E   Q
|---------------------------------|---------------------------------|
|---------------------------------|-------------------------10------|
|-10------10------10-------9--10--|-----10------10--10--12----------|
|---------------------------------|---------------------------------|
|---------------------------------|---------------------------------|
|---------------------------------|---------------------------------|


  Bb5
   E   E   E   E   E   E   E   E     E   E   E   E   E   E   E   E
|---------------------------------|----------------------------------||
|---------------------------------|---------------------------------o||
|--3---3---3---3---3---3---3---3--|--3---3---3---3---3---3---3---3---||
|--3---3---3---3---3---3---3---3--|--3---3---3---3---3---3---3---3---||
|--1---1---1---1---1---1---1---1--|--1---1---1---1---1---1---1---1--o||
|-(1)-(1)-(1)-(1)-(1)-(1)-(1)-(1)-|-(1)-(1)-(1)-(1)-(1)-(1)-(1)-(1)--||
|
|  q       q       Q       E   E     E   q       E   E   E   Q
|---------------------------------|----------------------------------||
|---------------------------------|---------------------------------o||
|-10------10------10-------9--10--|-----10------10--10---------------||
|---------------------------------|---------------------12--10-------||
|---------------------------------|---------------------------------o||
|---------------------------------|----------------------------------||


 Verse
  F
   E  E  E  E  E  E  E  E    E  E  E  E  E  E  E  E
|-------------------------|-------------------------|
|-10-10-10-10-10-10-10-10-|-10-10-10-10-10-10-10-10-|
|-10-10-10-10-10-10-10-10-|-10-10-10-10-10-10-10-10-|
|-10-10-10-10-10-10-10-10-|-10-10-10-10-10-10-10-10-|
|--8--8--8--8--8--8--8--8-|--8--8--8--8--8--8--8--8-|
|-------------------------|-------------------------|
|
|  W                         W
|-------------------------|-------------------------|
|-------------------------|-------------------------|
|-------------------------|-------------------------|
|-------------------------|-------------------------|
|-------------------------|-------------------------|
|-------------------------|-------------------------|


  (Bb5)
   E  E  E  E  E  E  E  E    E   E  E  E  E  E  E   E
|-------------------------|---------------------------|
|-10-10-10-10-10-10-10-10-|-11--11-11-10-10-10-10--10-|
|-10-10-10-10-10-10-10-10-|-10--10-10-10-10-10-10--10-|
|--8--8--8--8--8--8--8--8-|--8---8--8--8--8--8--8---8-|
|-------------------------|---------------------------|
|-------------------------|---------------------------|
|
|  W                         H.                 Q
|-------------------------|---------------------8/----|
|-------------------------|---------------------------|
|-------------------------|---------------------------|
|-------------------------|---------------------------|
|-------------------------|---------------------------|
|-------------------------|---------------------------|


  Dm
   E   E   E  E   E   E  E   E      E   E   E   E  E   E    E   E
|-10--10--10-10--10--10-10--10--|--10--10--10--10-10--10---10--10-|
|-10--10--10-10--10--10-10--10--|--10--10--10--10-10--10---10--10-|
|-10--10--10-10--10--10-10--10--|--10--10--10--10-10--10---10--10-|
|-12--12--12-12--12--12-12--12--|--12--12--12--12-12--12---12--12-|
|-12--12--12-12--12--12-12--12--|--12--12--12--12-12--12---12--12-|
|-10--10--10-10--10--10-10--10--|--10--10--10--10-10--10---10--10-|
|
|  E   Q      E   Q      E   E     +E   E   Q      E   E   +Q
|-10-(10)----10-(10)----10-(10)-|-(10)-10-(10)----10-(10)-(10)----|
|-----10---------10---------10--|-(10)-----10---------10--(10)----|
|-------------------------------|---------------------------------|
|-------------------------------|---------------------------------|
|-------------------------------|---------------------------------|
|-------------------------------|---------------------------------|


  (Bb5)
   E  E  E  E  E  E  E  E    E  E  E  E  E  E  E  E
|-------------------------|----------------------10-|
|-11-11-11-11-11-11-11-11-|-11-11-11-10-10-10-10-10-|
|-10-10-10-10-10-10-10-10-|-10-10-10-10-10-10-10-10-|
|--8--8--8--8--8--8--8--8-|--8--8--8--8--8--8--8----|
|-------------------------|-------------------------|
|-------------------------|-------------------------|
|
|  W                         W
|-------------------------|-------------------------|
|-------------------------|-------------------------|
|-------------------------|-------------------------|
|-------------------------|-------------------------|
|-------------------------|-------------------------|
|-------------------------|-------------------------|


  F
   E  E  E  E  E  E  E  E    E  E  E  E  E  E  E  E
|-------------------------|-------------------------|
|-10-10-10-10-10-10-10-10-|-10-10-10-10-10-10-10-10-|
|-10-10-10-10-10-10-10-10-|-10-10-10-10-10-10-10-10-|
|-10-10-10-10-10-10-10-10-|-10-10-10-10-10-10-10-10-|
|--8--8--8--8--8--8--8--8-|--8--8--8--8--8--8--8--8-|
|-------------------------|-------------------------|
|
|  W                         W
|-------------------------|-------------------------|
|-------------------------|-------------------------|
|-------------------------|-------------------------|
|-------------------------|-------------------------|
|-------------------------|-------------------------|
|-------------------------|-------------------------|


  Bbmaj7
   E  E  E  E  E  E  E  E    E  E  E  E  E  E  E  E
|-------------------------|-------------------------|
|-10-10-10-10-10-10-10-10-|-10-10-10-10-10-10-10-10-|
|-10-10-10-10-10-10-10-10-|-10-10-10-10-10-10-10-10-|
|--8--8--8--8--8--8--8--8-|--8--8--8--8--8--8--8--8-|
|-------------------------|-------------------------|
|-------------------------|-------------------------|
|
|  E  E  E  E  E  E  E  E    E  E  E  E  E  E  Q
|--8--8--8--8--8--8--8--8-|--8--8--8--8--8--8--8S===|
|-10-10-10-10-10-10-10-10-|-10-10-10-10-10-10-------|
|-------------------------|-------------------------|
|-------------------------|-------------------------|
|-------------------------|-------------------------|
|-------------------------|-------------------------|


  Dm
   E   E   E  E   E   E  E   E      E   E   E   E  E   E    E   E
|-10--10--10-10--10--10-10--10--|--10--10--10--10-10--10---10--10-|
|-10--10--10-10--10--10-10--10--|--10--10--10--10-10--10---10--10-|
|-10--10--10-10--10--10-10--10--|--10--10--10--10-10--10---10--10-|
|-12--12--12-12--12--12-12--12--|--12--12--12--12-12--12---12--12-|
|-12--12--12-12--12--12-12--12--|--12--12--12--12-12--12---12--12-|
|-10--10--10-10--10--10-10--10--|--10--10--10--10-10--10---10--10-|
|
|  E   Q      E   Q      E   E     +E   E   Q      E   E   +Q
|-10-(10)----10-(10)----10-(10)-|-(10)-10-(10)----10-(10)-(10)----|
|-----10---------10---------10--|-(10)-----10---------10--(10)----|
|-------------------------------|---------------------------------|
|-------------------------------|---------------------------------|
|-------------------------------|---------------------------------|
|-------------------------------|---------------------------------|


  (Bb5)
   E  E  E  E  E  E  E  E    E  E  E  E  E  E  E  E
|-------------------------|----------------------10-||
|-11-11-11-11-11-11-11-11-|-11-11-11-10-10-10-10-10-||
|-10-10-10-10-10-10-10-10-|-10-10-10-10-10-10-10-10-||
|--8--8--8--8--8--8--8--8-|--8--8--8--8--8--8--8----||
|-------------------------|-------------------------||
|-------------------------|-------------------------||
|
|  W                         W
|-------------------------|-------------------------||
|-------------------------|-------------------------||
|-------------------------|-------------------------||
|-------------------------|-------------------------||
|-------------------------|-------------------------||
|-------------------------|-------------------------||


 Pre-Chorus
  Dm
   E   E   E   E   E   E   E   E     E   E   E   E   E   E   E   E
|-(5)-(5)-(5)-(5)-(5)-(5)-(5)-(5)-|-(5)-(5)-(5)-(5)-(5)-(5)-(5)-(5)-|
|-(6)-(6)-(6)-(6)-(6)-(6)-(6)-(6)-|-(6)-(6)-(6)-(6)-(6)-(6)-(6)-(6)-|
|--7---7---7---7---7---7---7---7--|--7---7---7---7---7---7---7---7--|
|--7---7---7---7---7---7---7---7--|--7---7---7---7---7---7---7---7--|
|--5---5---5---5---5---5---5---5--|--5---5---5---5---5---5---5---5--|
|-(5)-(5)-(5)-(5)-(5)-(5)-(5)-(5)-|-(5)-(5)-(5)-(5)-(5)-(5)-(5)-(5)-|


  Bb5
  E E E E E E E E   E E E E E E E E
|-----------------|-----------------|
|-----------------|-----------------|
|-3-3-3-3-3-3-3-3-|-3-3-3-3-3-3-3-3-|
|-3-3-3-3-3-3-3-3-|-3-3-3-3-3-3-3-3-|
|-1-1-1-1-1-1-1-1-|-1-1-1-1-1-1-1-1-|
|-----------------|-----------------|


  (F5)                                Bb5
  E E E E E E E E   E E E E E E E E   E E E E E E E E   E E E E E E E E
|-----------------|-----------------|-----------------|-----------------|
|-----------------|-----------------|-----------------|-----------------|
|-----------------|-----------------|-3-3-3-3-3-3-3-3-|-3-3-3-3-3-3-3-3-|
|-3-3-3-3-3-3-3-3-|-3-3-3-3-3-3-3-3-|-3-3-3-3-3-3-3-3-|-3-3-3-3-3-3-3-3-|
|-3-3-3-3-3-3-3-3-|-3-3-3-3-3-3-3-3-|-1-1-1-1-1-1-1-1-|-1-1-1-1-1-1-1-1-|
|-1-1-1-0-1-1-1-0-|-1-1-1-1-1-0-1-0-|-----------------|-----------------|


  C5
  E E E E E E E E   E E E E E E E E
|-----------------|-----------------|
|-----------------|-----------------|
|-----------------|-5-5-5-5-5-5-5-5-|
|-5-5-5-5-5-5-5-5-|-5-5-5-5-5-5-5-5-|
|-3-3-3-3-3-3-3-3-|-3-3-3-3-3-3-3-3-|
|-----------------|-----------------|
|
| Gtrs II, III
| W                 W
|-----------------|-----------------|
|-----------------|-----------------|
|-----------------|-----------------|
|-----------------|-----------------|
|-----------------|-----------------|
|-----------------|-----------------|


  Bb5
  E  E E E E E  E  E    Q.        Q.        Q
|--------------------|---------------------------||
|--------------------|---------------------------||
|-3--3-3-3-3-3--3--3-|--3---------3---------3----||
|-3--3-3-3-3-3--3--3-|--3---------3---------3----||
|-1--1-1-1-1-1--1--1-|--1---------1---------1----||
|--------------------|---------------------------||
|
| H.            Q       E   E  E  E   E  E  E  E
|--------------------|---------------------------||
|--------------------|---------------------------||
|--------------10/---|-15--15-15-14--14-14-12-12-||
|---------------x----|--x---x--x--x---x--x--x--x-||
|---------------8/---|-13--13-13-12--12-12-10-10-||
|--------------------|---------------------------||


   Out-Chorus
    F
     E   E   E   E   E   E   E   E     E   E   E   E   E   E   E   E
||----------------------------------|---------------------------------|
||o---------------------------------|---------------------------------|
||--(2)-(2)-(2)-(2)-(2)-(2)-(2)-(2)-|-(2)-(2)-(2)-(2)-(2)-(2)-(2)-(2)-|
||---3---3---3---3---3---3---3---3--|--3---3---3---3---3---3---3---3--|
||o--3---3---3---3---3---3---3---3--|--3---3---3---3---3---3---3---3--|
||---1---1---1---1---1---1---1---1--|--1---1---1---1---1---1---1---1--|
|
|   Gtr II
|    E   E   E   E   E   E   E   E     E   E   E   E   E   E   E   E
||----------------------------------|---------------------------------|
||o-10--10--10--10--10--10--10--10--|-10--10--10--10--10--10--10--10--|
||--10--10--10--10--10--10--10--10--|-10--10--10--10--10--10--10--10--|
||--10--10--10--10--10--10--10--10--|-10--10--10--10--10--10--10--10--|
||o---------------------------------|---------------------------------|
||----------------------------------|---------------------------------|


  Bb
   E   E   E   E   E   E   E   E     E   E   E   E   E   E   E   E
|---------------------------------|----------------------------------|
|-(3)-(3)-(3)-(3)-(3)-(3)-(3)-(3)-|-(3)-(3)-(3)-(3)-(3)-(3)-(3)-(3)--|
|--3---3---3---3---3---3---3---3--|--3---3---3---3---3---3---3---3---|
|--3---3---3---3---3---3---3---3--|--3---3---3---3---3---3---3---3---|
|--1---1---1---1---1---1---1---1--|--1---1---1---1---1---1---1---1---|
|-(1)-(1)-(1)-(1)-(1)-(1)-(1)-(1)-|-(1)-(1)-(1)-(1)-(1)-(1)-(1)-(1)--|
|
|  E   E   E   E   E   E   E   E     E   E   E   E   E   E   E   E
|---------------------------------|----------------------------------|
|-10--10--10--10--10--10--10--10--|-10--10--10--10--10--10--10--10---|
|-10--10--10--10--10--10--10--10--|-10--10--10--10--10--10--10--10---|
|--8---8---8---8---8---8---8---8--|--8---8---8---8---8---8---8---8---|
|---------------------------------|----------------------------------|
|---------------------------------|----------------------------------|


  1.,2.
  Dm
   E   E   E   E   E   E   E   E     E   E   E   E   E   E   E   E
|---------------------------------|---------------------------------|
|-(6)-(6)-(6)-(6)-(6)-(6)-(6)-(6)-|-(6)-(6)-(6)-(6)-(6)-(6)-(6)-(6)-|
|--7---7---7---7---7---7---7---7--|--7---7---7---7---7---7---7---7--|
|--7---7---7---7---7---7---7---7--|--7---7---7---7---7---7---7---7--|
|--5---5---5---5---5---5---5---5--|--5---5---5---5---5---5---5---5--|
|-(5)-(5)-(5)-(5)-(5)-(5)-(5)-(5)-|-(5)-(5)-(5)-(5)-(5)-(5)-(5)-(5)-|
|
|  E   E   E   E   E   E   E   E     E   E   E   E   E   E   E   E
|---------------------------------|---------------------------------|
|-10--10--10--10--10--10--10--10--|-10--10--10--10--10--10--10--10--|
|-10--10--10--10--10--10--10--10--|-10--10--10--10--10--10--10--10--|
|-12--12--12--12--12--12--12--12--|-12--12--12--12--12--12--12--12--|
|---------------------------------|---------------------------------|
|---------------------------------|---------------------------------|


  Bb5
   E   E   E   E   E   E   E   E     E   E   E   E   E   E   E   E   3x
|---------------------------------|----------------------------------||
|-(3)-(3)-(3)-(3)-(3)-(3)-(3)-(3)-|-(3)-(3)-(3)-(3)-(3)-(3)-(3)-(3)-o||
|--3---3---3---3---3---3---3---3--|--3---3---3---3---3---3---3---3---||
|--3---3---3---3---3---3---3---3--|--3---3---3---3---3---3---3---3---||
|--1---1---1---1---1---1---1---1--|--1---1---1---1---1---1---1---1--o||
|-(1)-(1)-(1)-(1)-(1)-(1)-(1)-(1)-|-(1)-(1)-(1)-(1)-(1)-(1)-(1)-(1)--||
|
|  E   E   E   E   E   E   E   E     E   E   E   E   E   E   E   E   3x
|---------------------------------|----------------------------------||
|-10--10--10--10--10--10--10--10--|-10--10--10--10--10--10--10--10--o||
|-10--10--10--10--10--10--10--10--|-10--10--10--10--10--10--10--10---||
|-10--10--10--10--10--10--10--10--|-10--10--10--10--10--10--10--10---||
|---------------------------------|---------------------------------o||
|---------------------------------|----------------------------------||


 Outro
  3.=H
  D5                     C5
   E  E E  E E  E  E E    E  E E  E E  E  E E
|----------------------|----------------------|
|----------------------|----------------------|
|--7--7-7--7-7--7--7-7-|--5--5-5--5-5--5--5-5-|
|--7--7-7--7-7--7--7-7-|--5--5-5--5-5--5--5-5-|
|--5--5-5--5-5--5--5-5-|--3--3-3--3-3--3--3-3-|
|----------------------|----------------------|
|
| Gtrs II, III
|  E  Q    Q    E  Q      E  Q    Q    E  Q
|---------13-----------|---------15-----------|
|----15--------15------|----13--------13------|
|-14--------------14---|-12--------------12---|
|----------------------|----------------------|
|----------------------|----------------------|
|----------------------|----------------------|


  Bb5
   E  E E  E E  E  E E    E  E  E  E  E  E  E  E
|----------------------|-------------------------|
|----------------------|-------------------------|
|--3--3-3--3-3--3--3-3-|--3--3--3--3--3--3--3--3-|
|--3--3-3--3-3--3--3-3-|--3--3--3--3--3--3--3--3-|
|--1--1-1--1-1--1--1-1-|--1--1--1--1--1--1--1--1-|
|----------------------|-------------------------|
|
|  E  Q    Q    E  Q      E  E  E  E  E  E  E  E
|---------13-----------|-------------------------|
|----11--------11------|-11-10----11-10----10-11-|
|-10--------------10---|-------10-------10-------|
|----------------------|-------------------------|
|----------------------|-------------------------|
|----------------------|-------------------------|


  Q=102
  F5
   >
   W           +W            +W            +W
|-----------|-------------|-------------|---------*|
|-----------|-------------|-------------|---------*|
|-----------|-------------|-------------|---------*|
|--3--------|--(3)--------|--(3)--------|--(3)----*|
|--3--------|--(3)--------|--(3)--------|--(3)----*|
|--1--------|--(1)--------|--(1)--------|--(1)----*|
|
|  W           +W            +W            +W
|-----------|-------------|-------------|---------*|
|-----------|-------------|-------------|---------*|
|-10--------|-(10)--------|-(10)--------|-(10)----*|
|-----------|-------------|-------------|---------*|
|-----------|-------------|-------------|---------*|
|-----------|-------------|-------------|---------*|



Duration Legend
---------------
W - whole; H - half; Q - quarter; E - 8th; S - 16th; T - 32nd; X - 64th; a - acciaccatura
+ - note tied to previous; . - note dotted; .. - note double dotted
Uncapitalized letters represent notes that are staccato (1/2 duration)
Irregular groupings are notated above the duration line
Duration letters will always appear directly above the note/fret number it represents the
duration for.  Duration letters with no fret number below them represent rests.  Multi-
bar rests are notated in the form Wxn, where n is the number of bars to rest for.  Low
melody durations appear below the staff

Tablature Legend
----------------
 h   - hammer-on
 p   - pull-off
 b   - bend
 pb  - pre-bend
 r   - bend release (if no number after the r, then release immediately)
 /\  - slide into or out of (from/to "nowhere")
 s   - legato slide
 S   - shift slide
 - natural harmonic
[n]  - artificial harmonic
n(n) - tapped harmonic
 ~   - vibrato
 tr  - trill
 T   - tap
 TP  - trem. picking
 PM  - palm muting
\n/  - tremolo bar dip; n = amount to dip
 \n  - tremolo bar down
 n/  - tremolo bar up
/n\  - tremolo bar inverted dip
 =   - hold bend; also acts as connecting device for hammers/pulls
 <> - volume swell (louder/softer)
 x   - on rhythm slash represents muted slash
 o   - on rhythm slash represents single note slash

Misc Legend
-----------
 |  - bar
||  - double bar
||o - repeat start
o|| - repeat end
*|  - double bar (ending)
 :  - bar (freetime)
 $  - Segno
 &  - Coda
Tempo markers -  = BPM(8/16=s8/s16), where s8 = swing 8ths, s16 = swing 16ths

            
            
Suggest correction
Creating personal tab
Creating personal tab
You can edit any tab online and save it as your Personal.

You can edit, replace or remove any tab part or add personal notes – all changes will be seen only by you.

Personal tabs can be accessed anytime from any device, even offline.
Learn more »
comments
print report bad tab
3 comments total.
+1 reply
ZannaRM 10 Feb 23, 2008 01:06 AM

well done

0 reply
WarwickGhost 51 Mar 02, 2008 05:00 AM

Much, MUCH better than my tab, good job mate!

+1 reply
Pengu1n 10 Feb 24, 2010 09:05 AM

God I hate when guitar pro tabs are put into text form. It's a simple song, no way does the tab need to be like twelve pages long

guest
You may want to rate the tab now too:
select rating
Wanna post a correction for this tab? Suggest correction