Oops, an error
Loading. Please wait.

True Trans Soul Rebel tab

9,503 views 39 this week
5 commentsread comments
1 2 3 4 5
x 8
add to favorites
×
Save as Personal and add changes to this tab that will be seen only by you. Learn more ›
×
You can save this tab as Personal to edit and correct it or add notes. All changes will be seen only by you. Learn more »
launch autoscroll
font size
0
reset
how to read this tab
guitar tuner
edit
Autoscroll
slow
fast
+/-
esc
set tempo
stop
First time tabbing a song by ear

Standard Tuning

Guitar 1 capo on 3rd
Guitar 2 no capo

INTRO
Guitar 1:
e|--------------------------------|--------------------------------|
B|-3~--------------3~-------------|-3~--------------1~-------------|
G|-0~--------------2~-------------|-0~--------------0~-------------|
D|-0~--------------0~-------------|-0~--------------2~-------------|
A|-2~-----------------------------|-2~--------------3~-------------|
E|-3~-----------------------------|-3~-----------------------------|

e|--------------------------------|--------------------------------|
B|-3~--------------3~-------------|-3~--------------1~-------------|
G|-0~--------------2~-------------|-0~--------------0~-------------|
D|-0~--------------0~-------------|-0~--------------2~-------------|
A|-2~-----------------------------|-2~--------------3~-------------|
E|-3~-----------------------------|-3~-----------------------------|

Guitar 2:
e|--------------------------------|--------------------------------|
B|--------------------------------|--------------------------------|
G|--------------------------------|--------------------------------|
D|--------------------------------|--------------------------------|
A|-------5-------8~---------------|-------5---------------6-----5--|
E|-6---8-----8-6------------------|-6---8-----8-6---3--------------|

e|--------------------------------|--------------------------------|
B|--------------------------------|--------------------------------|
G|--------------------------------|--------------------------------|
D|--------------------------------|--------------------------------|
A|-------5-------8~---------------|-------5---------------6-----5--|
E|-6---8-----8-6------------------|-6---8-----8-6---3--------------|

VERSE
Guitar 1:
e|--------------------------------|-0------------------------------|
B|-3------------------------------|-1------------------------------|
G|-0------------------------------|-2------------------------------|
D|-0-x16--------------------------|-2-x16--------------------------|
A|-2------------------------------|-0------------------------------|
E|-3------------------------------|--------------------------------|
 All dressed up and nowhere to go...

e|-0------------------------------|--------------------------------|
B|-0---------------3--------------|-1-----------1------------------|
G|-0---------------2--------------|-0-----------0------------------|
D|-2-x8------------0-x8-----------|-2-x8--------0-x8---------------|
A|-2------------------------------|-3-----------2------------------|
E|-0------------------------------|--------------------------------|
 Walking the streets all alone...

e|--------------------------------|-0------------------------------|
B|-3------------------------------|-1------------------------------|
G|-0------------------------------|-2------------------------------|
D|-0-x16--------------------------|-2-x16--------------------------|
A|-2------------------------------|-0------------------------------|
E|-3------------------------------|--------------------------------|
 Another night to wish that you could forget...

e|-0------------------------------|--------------------------------|
B|-0---------------3--------------|-1-----------1------------------|
G|-0---------------2--------------|-0-----------0------------------|
D|-2-x8------------0-x8-----------|-2-x16-------0-x8---------------|
A|-2------------------------------|-3-----------2-(-Guitar-2:-)----|
E|-0------------------------------|---------------(-6-6-610---8--)-|
 Making yourself up as you go along.              Who's gonna take you

CHORUS PART 1
Guitar 1:
e|--------------------------------|--------------------------------|
B|-3------------------------------|-3------------------------------|
G|-0------------------------------|-0------------------------------|
D|-0-x16--------------------------|-2-x16--------------------------|
A|-2------------------------------|-3------------------------------|
E|-3------------------------------|--------------------------------|
 home tonight, who's gonna take you home? Who's gonna take you

e|--------------------------------|--------------------------------|
B|-3------------------------------|-3------------------------------|
G|-0------------------------------|-0------------------------------|
D|-0-x16--------------------------|-2-x16--------------------------|
A|-2------------------------------|-3------------------------------|
E|-3------------------------------|--------------------------------|
 home tonight, who's gonna take you home?

Guitar 2:
e|--------------------------------|--------------------------------|
B|--------------------------------|--------------------------------|
G|--------------------------------|--------------------------------|
D|--------------------------------|--------------------------------|
A|-----------------------------8-8|--------------------------------|
E|1010101010101010-6-6-6-61010----|-6-6-6-6-6-6-6-6-6-6-6-61010-8-8|
 home tonight, who's gonna take you home? Who's gonna take you

e|--------------------------------|--------------------------------|
B|--------------------------------|--------------------------------|
G|--------------------------------|--------------------------------|
D|--------------------------------|--------------------------------|
A|-----------------------------8-8|--------------------------------|
E|1010101010101010-6-6-6-61010----|-6-6-6-6-6-6-6-6-6-6-6-6-6-6-6-6|
 home tonight, who's gonna take you home?


CHORUS PART 2
Guitar 1:
e|-0------------------------------|--------------------------------|
B|-0------------------------------|-3---------------1--------------|
G|-0------------------------------|-0---------------0--------------|
D|-2-x16--------------------------|-0-x8------------2-x8-----------|
A|-2------------------------------|-2---------------3--------------|
E|-0------------------------------|-3------------------------------|
 Does god bless your transsexual heart?

e|--------------------------------|-0------------------------------|
B|-3---------------3--------------|-0------------------------------|
G|-0---------------2--------------|-0------------------------------|
D|-0-x8------------0-x8-----------|-2-x16--------------------------|
A|-2------------------------------|-2------------------------------|
E|-3------------------------------|-0------------------------------|
 True trans soul rebel.

Guitar 2:
e|--------------------------------|--------------------------------|
B|--------------------------------|--------------------------------|
G|--------------------------------|-----------------8--------------|
D|-5-x16--------------------------|-8-x8------------8-x8-----------|
A|-5------------------------------|-8---------------6--------------|
E|-3------------------------------|-6------------------------------|
 Does god bless your transsexual heart?

e|--------------------------------|--------------------------------|
B|-----------------6--------------|-8------------------------------|
G|-----------------5--------------|-7------------------------------|
D|-8-x8------------3-x8-----------|-5-x16--------------------------|
A|-8------------------------------|--------------------------------|
E|-6------------------------------|--------------------------------|
 True trans soul rebel.

PRE-VERSE
Guitar 1:
e|--------------------------------|--------------------------------|
B|-3~--------------3~-------------|-3~--------------1~-------------|
G|-0~--------------2~-------------|-0~--------------0~-------------|
D|-0~--------------0~-------------|-0~--------------2~-------------|
A|-2~-----------------------------|-2~--------------3~-------------|
E|-3~-----------------------------|-3~-----------------------------|

e|--------------------------------|--------------------------------|
B|-3~--------------3~-------------|-3~--------------1~-------------|
G|-0~--------------2~-------------|-0~--------------0~-------------|
D|-0~--------------0~-------------|-0~--------------2~-------------|
A|-2~-----------------------------|-2~--------------3~-------------|
E|-3~-----------------------------|-3~-----------------------------|

Guitar 2:
e|--------------------------------|--------------------------------|
B|--------------------------------|--------------------------------|
G|--------------------------------|--------------------------------|
D|--------------------------------|--------------------------------|
A|-------5-------8~---------------|-------5---------------6-----5--|
E|-6---8-----8-6------------------|-6---8-----8-6---3--------------|

e|--------------------------------|--------------------------------|
B|--------------------------------|--------------------------------|
G|--------------------------------|--------------------------------|
D|--------------------------------|--------------------------------|
A|-------5-------8~---------------|-------5---------------6-----5--|
E|-6---8-----8-6------------------|-6---8-----8-6---3--------------|

VERSE
Guitar 1:
e|--------------------------------|-0------------------------------|
B|-3------------------------------|-1------------------------------|
G|-0------------------------------|-2------------------------------|
D|-0-x16--------------------------|-2-x16--------------------------|
A|-2------------------------------|-0------------------------------|
E|-3------------------------------|--------------------------------|
 Yet to be born, you're already dead...

e|-0------------------------------|--------------------------------|
B|-0---------------3--------------|-1-----------1------------------|
G|-0---------------2--------------|-0-----------0------------------|
D|-2-x8------------0-x8-----------|-2-x8--------0-x8---------------|
A|-2------------------------------|-3-----------2------------------|
E|-0------------------------------|--------------------------------|
 You sleep with a gun beside you in bed...

e|--------------------------------|-0------------------------------|
B|-3------------------------------|-1------------------------------|
G|-0------------------------------|-2------------------------------|
D|-0-x16--------------------------|-2-x16--------------------------|
A|-2------------------------------|-0------------------------------|
E|-3------------------------------|--------------------------------|
 You follow it through to the obvious end...

e|-0------------------------------|--------------------------------|
B|-0---------------3--------------|-1-----------1------------------|
G|-0---------------2--------------|-0-----------0------------------|
D|-2-x8------------0-x8-----------|-2-x16-------0-x8---------------|
A|-2------------------------------|-3-----------2-(-Guitar-2:-)----|
E|-0------------------------------|---------------(-6-6-610---8--)-|
 Slit your veins wide open, you bleed it out.

REPEAT CHORUS PARTS 1 & 2

BRIDGE PART 1
e|--------------------------------|--------------------------------|
B|-3~--------------3~-------------|-3~--------------1~-------------|
G|-0~--------------2~-------------|-0~--------------0~-------------|
D|-0~--------------0~-------------|-0~--------------2~-------------|
A|-2~-----------------------------|-2~--------------3~-------------|
E|-3~-----------------------------|-3~-----------------------------|

e|--------------------------------|--------------------------------|
B|-3~--------------3~-------------|-3~--------------1~-------------|
G|-0~--------------2~-------------|-0~--------------0~-------------|
D|-0~--------------0~-------------|-0~--------------2~-------------|
A|-2~-----------------------------|-2~--------------3~-------------|
E|-3~-----------------------------|-3~-----------------------------|
                                                     Oh you should've been

Guitar 2:
e|--------------------------------|--------------------------------|
B|--------------------------------|--------------------------------|
G|--------------------------------|--------------------------------|
D|--------------------------------|--------------------------------|
A|-------5-------8~---------------|-------5---------------6-----5--|
E|-6---8-----8-6------------------|-6---8-----8-6---3--------------|

e|--------------------------------|--------------------------------|
B|--------------------------------|--------------------------------|
G|--------------------------------|--------------------------------|
D|--------------------------------|--------------------------------|
A|-------5-------8~---------------|-------5------------------------|
E|-6---8-----8-6------------------|-6---8-----8-6---3~-------------|
                                                     Oh you should've been
BRIDGE PART 2
Guitar 1:
e|-0~--------------0~-------------|--------------------------------|
B|-1~--------------1~-------------|-1~--------------1~-------------|
G|-2~--------------2~-------------|-0~--------------0~-------------|
D|-2~--------------2~-------------|-2~--------------2~-------------|
A|-0~--------------0~-------------|-3~--------------3~-------------|
E|--------------------------------|--------------------------------|
 a mother, you should've been a wife...

e|--------------------------------|--------------------------------|
B|-3~--------------3~-------------|-1~-----------------------------|
G|-0~--------------2~-------------|-0~------------(Guitar 2:)------|
D|-0~--------------0~-------------|-2~------------(-8-8-812--10--)-|
A|-2~-----------------------------|-3~-----------------------------|
E|-3~-----------------------------|--------------------------------|
 You should've been gone from here years ago, you should be living a different life. 
Who's gonna take you

FINAL CHORUS PART 1
Guitar 1:
e|--------------------------------|--------------------------------|
B|-3------------------------------|-3------------------------------|
G|-0------------------------------|-0------------------------------|
D|-0-x16--------------------------|-2-x16--------------------------|
A|-2------------------------------|-3------------------------------|
E|-3------------------------------|--------------------------------|
 home tonight, who's gonna take you home? Who's gonna take you

e|--------------------------------|--------------------------------|
B|-3------------------------------|-3------------------------------|
G|-0------------------------------|-0------------------------------|
D|-0-x16--------------------------|-2-x16--------------------------|
A|-2------------------------------|-3------------------------------|
E|-3------------------------------|--------------------------------|
 home tonight, who's gonna take you home? Who's gonna take you

e|--------------------------------|--------------------------------|
B|-3------------------------------|-3------------------------------|
G|-0------------------------------|-0------------------------------|
D|-0-x16--------------------------|-2-x16--------------------------|
A|-2------------------------------|-3------------------------------|
E|-3------------------------------|--------------------------------|
 home tonight, who's gonna take you home?

Guitar 2:
e|--------------------------------|--------------------------------|
B|--------------------------------|--------------------------------|
G|----------------------------1010|--------------------------------|
D|1212121212121212-8-8-8-81212----|-8-8-8-8-8-8-8-8-8-8-8-812121010|
A|--------------------------------|--------------------------------|
E|--------------------------------|--------------------------------|
 home tonight, who's gonna take you home? Who's gonna take you

e|--------------------------------|--------------------------------|
B|--------------------------------|--------------------------------|
G|----------------------------1010|--------------------------------|
D|1212121212121212-8-8-8-81212----|-8-8-8-8-8-8-8-8-8-8-8-812121010|
A|--------------------------------|--------------------------------|
E|--------------------------------|--------------------------------|
 home tonight, who's gonna take you home? Who's gonna take you

e|--------------------------------|--------------------------------|
B|--------------------------------|--------------------------------|
G|----------------------------1010|--------------------------------|
D|1212121212121212-8-8-8-81212----|-8-8-8-8-8-8-8-8-8-8-8-8-8-8-8-8|
A|--------------------------------|--------------------------------|
E|--------------------------------|--------------------------------|
 home tonight, who's gonna take you home?

FINAL CHORUS PART 2
Guitar 1:
e|-0------------------------------|--------------------------------|
B|-0------------------------------|-3---------------1--------------|
G|-0------------------------------|-0---------------0--------------|
D|-2-x16--------------------------|-0-x8------------2-x8-----------|
A|-2------------------------------|-2---------------3--------------|
E|-0------------------------------|-3------------------------------|
 Does god bless your transsexual heart,

e|--------------------------------|-0------------------------------|
B|-3---------------3--------------|-0------------------------------|
G|-0---------------2--------------|-0------------------------------|
D|-0-x8------------0-x8-----------|-2-x16--------------------------|
A|-2------------------------------|-2------------------------------|
E|-3------------------------------|-0------------------------------|
 True trans soul rebel?

e|--------------------------------|--------------------------------|
B|-3---------------3--------------|-1------------------------------|
G|-0---------------2--------------|-0------------------------------|
D|-0-x8------------0-x8-----------|-2-x16--------------------------|
A|-2------------------------------|-3------------------------------|
E|-3------------------------------|--------------------------------|
 True trans soul rebel!

Guitar 2:
e|--------------------------------|--------------------------------|
B|--------------------------------|--------------------------------|
G|--------------------------------|-----------------8--------------|
D|-5-x16--------------------------|-8-x8------------8-x8-----------|
A|-5------------------------------|-8---------------6--------------|
E|-3------------------------------|-6------------------------------|
 Does god bless your transsexual heart?

e|--------------------------------|--------------------------------|
B|-----------------6--------------|-8------------------------------|
G|-----------------5--------------|-7------------------------------|
D|-8-x8------------3-x8-----------|-5-x16--------------------------|
A|-8------------------------------|--------------------------------|
E|-6------------------------------|--------------------------------|
 True trans soul rebel.

e|--------------------------------|--------------------------------|
B|-----------------6--------------|--------------------------------|
G|-----------------5--------------|-8------------------------------|
D|-8-x8------------3-x8-----------|-8-x16--------------------------|
A|-8------------------------------|-6------------------------------|
E|-6------------------------------|--------------------------------|
True trans soul rebel!

OUTRO
Guitar 1:
e|--------------------------------|--------------------------------|
B|-3---------------3---1-------3~-|--------------------------------|
G|-0---------------2---0-------0~-|--------------------------------|
D|-0---------------0---2-------0~-|--------------------------------|
A|-2-------------------3-------2~-|--------------------------------|
E|-3---------------------------3~-|--------------------------------|

Guitar 2:
e|--------------------------------|--------------------------------|
B|--------------------------------|--------------------------------|
G|--------------------------------|--------------------------------|
D|--------------------------------|--------------------------------|
A|-------5---------8---6---5------|--------------------------------|
E|-6---8-----8-6---------------6~-|--------------------------------|


That's it! Feedback is more than welcome.

            
            
Suggest correction
Creating personal tab
Creating personal tab
You can edit any tab online and save it as your Personal.

You can edit, replace or remove any tab part or add personal notes – all changes will be seen only by you.

Personal tabs can be accessed anytime from any device, even offline.
Learn more »
comments
print report bad tab
5 comments total. Showing first comments.
0 reply
Evil_Pun 10 Jan 11, 2014 08:29 AM

looks good, guitar 2 doesn't need a capo and doesn't use one so you might wanna clarify that

0 reply
hennym5 379 Jan 24, 2014 07:29 AM

ok yeah I'll change it so it's clear guitar 2 doesn't have a capo (actually by the time you're reading this it may already be changed... woah i just got chills) as well as updating it now the recorded version's out

+2 reply
Evil_Pun 10 Mar 30, 2014 04:44 AM

I have a bit more help to make this more accurate. If you think of Guitar 1 as being Laura and guitar 2 being James take into account Laura does all the riffs while James plays rhythm. so on guitar 1 with the capo at 3 the intro/common riff should be this, relative to the capo

e|--------------------------------|--------------------------------|
B|--------------------------------|--------------------------------|
G|--------------------------------|--------------------------------|
D|------------------0~------------|--------------------------------|
A|-----0--2p0---------------------|----0--2p0--------3--2----------|
E|-3-----------3------------------|-3----------3-0-----------------|


During the entire song James is using power chords. I believe all the one's he uses are A#5 at the 6th fret 6th string root, D#5 and the 6th fret 5th string root, G5 3rd fret 6th string root and E# at the 8th fret 5th string root. I'm pretty sure that's the positions he uses because the D#, A# and E# end up being the typical east 1,4,5 positions with G being the only oddity.

In the main verses there's one resolution transition chord that is currently missing. As an example of what it should be I took the part and edited in the chord. I don't know how many times because I play by feel rather than count so I'm not bothering with that.

e|--------------------------------|-0------------------------------|
B|-3------------------------------|-1------------------------------|
G|-0------------------------------|-2------------------------------|
D|-0-x16--------------------------|-2-x16--------------------------|
A|-2------------------------------|-0------------------------------|
E|-3------------------------------|--------------------------------|
Yet to be born, you're already dead...

e|-0------------------------------|--------------------------------|
B|-0---------------3--------------|-1-------------------1----------|
G|-0---------------2--------------|-0-------------------0----------|
D|-2-x8------------0-x8-----------|-2-x16---------------0----------|
A|-2------------------------------|-3-------------------2----------|
E|-0------------------------------|--------------------------------|


at the same time as that James should be playing
e|--------------------------------|--------------------------------|
B|--------------------------------|--------------------------------|
G|--------------------------------|-8------------------------------|
D|-8-x16--------------------------|-8-x16--------------------------|
A|-8------------------------------|-6------------------------------|
E|-6------------------------------|--------------------------------|
Yet to be born, you're already dead...

e|--------------------------------|--------------------------------|
B|--------------------------------|--------------------------------|
G|----------------10--------------|-8------------------8-----------|
D|-5-x8-----------10-x8-----------|-8-x16--------------8-----------|
A|-5---------------8--------------|-6------------------5-----------|
E|-3------------------------------|--------------------------------|


Finally the riff during "Who's gunna take you home" is Laura so guitar 1 and relative to 3rd fret capo during the very first "Who's gonna take you . . . " it starts low then each subsequent time it stay high so it should be
e|----------------------------------------------------------------|
B|----------------------------------------------------------------|
G|----------------------------------------------------------------|
D|---------------12-12-12-12-12-12--------------------------------|
A|---------2-0----------------------------------------------------|
E|---3-3-3--------------------------------------------------------|

and so on as you already have it, albeit listed as guitar 2.

I know this isn't how it is played having seen them in concert not too long ago but I find it easier when singing and playing this song to do the "Who's gonna take you home" riff like this

e|-------------------------------------------------------------------|
B|-----------------------------------------3-------------------------|
G|-----------------4-4-4-4-4-4-2-0-0-0-0-4---0-0-0-0-0-0-0-0-0-0-0-0-|
D|-------------------------------------------------------------------|
A|---------2-0-------------------------------------------------------|
E|---3-3-3-----------------------------------------------------------|

e|-------------------------------------------------------------------|
B|-----------------------------------------3-------------------------|
G|----4---2--------4-4-4-4-4-4-2-0-0-0-0-4---0-0-0-0-0-0-0-0-0-0-0-0-|
D|-------------------------------------------------------------------|
A|-------------------------------------------------------------------|
E|-------------------------------------------------------------------|


with the info I gave you I'm sure you can make this one of the most accurate tabs out there.

guest
You may want to rate the tab now too:
select rating
Wanna post a correction for this tab? Suggest correction