Oops, an error
Loading. Please wait.

Unprotected Sex With Multiple Partners tab

version 1
version 1

Whole song

6,120 views 1 this week
3 commentsread comments
1 2 3 4 5
x 3
add to favorites
×
Save as Personal and add changes to this tab that will be seen only by you. Learn more ›
×
You can save this tab as Personal to edit and correct it or add notes. All changes will be seen only by you. Learn more »
launch autoscroll
font size
0
reset
how to read this tab
guitar tuner
edit
Autoscroll
slow
fast
+/-
esc
set tempo
stop
Author
Difficulty
In the starting you just stum the power chords (this is also for the verse)

e-----------------------------|
B-----------------------------|
G---------77------------------|
D------99-77-77--55-44--------|
A------99-55-77--55-44--------|
E------77----55--33-22--------|


Through the next intro part the power chords are also being strumed in the background
e--------------------------->
B------------3h5p3----3---3->
G--------2h4-------4-------->X3
D----------------------4---->
A--------------------------->
E--------------------------->


then
e--------------------------|
B------------3h5p3----(b)5-|
G--------2h4-------4-------|
D--------------------------|
A--------------------------|
E--------------------------|

for the second half of the verse you play the intro chords on the off beat


prelude to chorus
e--------------------------|
B--------------------------|
G--------------------------|
D-44444444-5555-7777-------|
A-44444444-5555-7777-------|
E-22222222-3333-5555-------|


Chorus
e--------------------------------------|
B--------------------------------------|
G--------------------------------------|
D----------7-7-7-7---------------------|
A-9-9-9-9--5-5-5-5--7-7-7-7--5-5--4-4--|
E-7-7-7-7-----------5-5-5-5--3-3--2-2--|

FIN

            
            
Suggest correction
Creating personal tab
Creating personal tab
You can edit any tab online and save it as your Personal.

You can edit, replace or remove any tab part or add personal notes – all changes will be seen only by you.

Personal tabs can be accessed anytime from any device, even offline.
Learn more »
Give kudos to tab author, rate the tab!
1 2 3 4 5
comments
print report bad tab
3 comments total.
0 reply
skankfluffy 10 Jun 09, 2007 07:46 PM

Solo, I think this about 90% correct other than the middle of the lower part of the solo
e-------------------------------------------|
B--b5-5--3---b5-5--3------------------------|
G---------4----------4------2---2-4-2---2-b4|
D-----------------------2-4---4-------4-----|
A----------------------5--------------------|
E-------------------------------------------|

0 reply
KleZZi 41 Mar 15, 2008 04:02 PM

No, I think its more like:
e-------------------------------------------|
B--b5-5--3---b5-5--3------------------------|
G---------4----------4-------------4-2------|
D--------------------------2-4-2-------4-2--|
A----------------------2-5-------5---------5|
E-------------------------------------------|

+1 reply
ronin_dude21 10 Jun 30, 2008 12:52 PM

This tab is way off..watch any live video of the song and you'll see..those power chords dont even sound right..c'mon guys....try this... solo is played in the same way on your DG using 9&7....oh and the chords for the chorus are the same as the intro...cheers.J

B--7--5-----------------------------------------------
G--9--7--6 4 -------7H9P7-7--7--------7H9P7-7---7--9B
D--9--7--7 5 4 9H7--------9------9H7---------9-------
A--------7 5 4--- -------------9----------------------
E----------- 2----------------------------------------

Don't bother telling me its worng, cause I know it's right, it sounds dead on with any recording

guest
You may want to rate the tab now too:
select rating
Wanna post a correction for this tab? Suggest correction